  0
SECTION
  2
HEADER
  9
$ACADVER
  1
AC1015
  9
$ACADMAINTVER
 70
     6
  9
$DWGCODEPAGE
  3
ANSI_1254
  9
$INSBASE
 10
0.0
 20
0.0
 30
0.0
  9
$EXTMIN
 10
0.0
 20
0.0
 30
0.0
  9
$EXTMAX
 10
279.4
 20
215.9
 30
0.0
  9
$LIMMIN
 10
0.0
 20
0.0
  9
$LIMMAX
 10
279.4
 20
215.9
  9
$ORTHOMODE
 70
     0
  9
$REGENMODE
 70
     1
  9
$FILLMODE
 70
     1
  9
$QTEXTMODE
 70
     0
  9
$MIRRTEXT
 70
     1
  9
$LTSCALE
 40
1.0
  9
$ATTMODE
 70
     1
  9
$TEXTSIZE
 40
3.5
  9
$TRACEWID
 40
1.0
  9
$TEXTSTYLE
  7
Standard
  9
$CLAYER
  8
0
  9
$CELTYPE
  6
ByLayer
  9
$CECOLOR
 62
   256
  9
$CELTSCALE
 40
1.0
  9
$DISPSILH
 70
     0
  9
$DIMSCALE
 40
1.0
  9
$DIMASZ
 40
3.5
  9
$DIMEXO
 40
1.0
  9
$DIMDLI
 40
3.75
  9
$DIMRND
 40
0.0
  9
$DIMDLE
 40
0.0
  9
$DIMEXE
 40
1.0
  9
$DIMTP
 40
0.0
  9
$DIMTM
 40
0.0
  9
$DIMTXT
 40
3.5
  9
$DIMCEN
 40
2.5
  9
$DIMTSZ
 40
0.0
  9
$DIMTOL
 70
     0
  9
$DIMLIM
 70
     0
  9
$DIMTIH
 70
     1
  9
$DIMTOH
 70
     1
  9
$DIMSE1
 70
     0
  9
$DIMSE2
 70
     0
  9
$DIMTAD
 70
     1
  9
$DIMZIN
 70
     0
  9
$DIMBLK
  1

  9
$DIMASO
 70
     1
  9
$DIMSHO
 70
     1
  9
$DIMPOST
  1

  9
$DIMAPOST
  1

  9
$DIMALT
 70
     0
  9
$DIMALTD
 70
     3
  9
$DIMALTF
 40
0.0393700787
  9
$DIMLFAC
 40
1.0
  9
$DIMTOFL
 70
     1
  9
$DIMTVP
 40
0.0
  9
$DIMTIX
 70
     0
  9
$DIMSOXD
 70
     0
  9
$DIMSAH
 70
     0
  9
$DIMBLK1
  1

  9
$DIMBLK2
  1

  9
$DIMSTYLE
  2
ISO-25
  9
$DIMCLRD
 70
     0
  9
$DIMCLRE
 70
     0
  9
$DIMCLRT
 70
     0
  9
$DIMTFAC
 40
1.0
  9
$DIMGAP
 40
1.524
  9
$DIMJUST
 70
     0
  9
$DIMSD1
 70
     0
  9
$DIMSD2
 70
     0
  9
$DIMTOLJ
 70
     0
  9
$DIMTZIN
 70
     0
  9
$DIMALTZ
 70
     0
  9
$DIMALTTZ
 70
     0
  9
$DIMUPT
 70
     0
  9
$DIMDEC
 70
     2
  9
$DIMTDEC
 70
     2
  9
$DIMALTU
 70
     2
  9
$DIMALTTD
 70
     3
  9
$DIMTXSTY
  7
Standard
  9
$DIMAUNIT
 70
     0
  9
$DIMADEC
 70
     2
  9
$DIMALTRND
 40
0.0
  9
$DIMAZIN
 70
     0
  9
$DIMDSEP
 70
    44
  9
$DIMATFIT
 70
     3
  9
$DIMFRAC
 70
     0
  9
$DIMLDRBLK
  1

  9
$DIMLUNIT
 70
     2
  9
$DIMLWD
 70
    -2
  9
$DIMLWE
 70
    -2
  9
$DIMTMOVE
 70
     0
  9
$LUNITS
 70
     2
  9
$LUPREC
 70
     2
  9
$SKETCHINC
 40
1.0
  9
$FILLETRAD
 40
10.0
  9
$AUNITS
 70
     0
  9
$AUPREC
 70
     2
  9
$MENU
  1
.
  9
$ELEVATION
 40
0.0
  9
$PELEVATION
 40
0.0
  9
$THICKNESS
 40
0.0
  9
$LIMCHECK
 70
     0
  9
$CHAMFERA
 40
0.0
  9
$CHAMFERB
 40
0.0
  9
$CHAMFERC
 40
0.0
  9
$CHAMFERD
 40
0.0
  9
$SKPOLY
 70
     0
  9
$TDCREATE
 40
2459935.710143854
  9
$TDUCREATE
 40
2459935.585143854
  9
$TDUPDATE
 40
2459935.710144028
  9
$TDUUPDATE
 40
2459935.585144028
  9
$TDINDWG
 40
0.0000000116
  9
$TDUSRTIMER
 40
0.0000000116
  9
$USRTIMER
 70
     1
  9
$ANGBASE
 50
0.0
  9
$ANGDIR
 70
     0
  9
$PDMODE
 70
     0
  9
$PDSIZE
 40
-1.0
  9
$PLINEWID
 40
0.0
  9
$SPLFRAME
 70
     0
  9
$SPLINETYPE
 70
     6
  9
$SPLINESEGS
 70
     8
  9
$HANDSEED
  5
110
  9
$SURFTAB1
 70
     6
  9
$SURFTAB2
 70
     6
  9
$SURFTYPE
 70
     6
  9
$SURFU
 70
     6
  9
$SURFV
 70
     6
  9
$UCSBASE
  2

  9
$UCSNAME
  2

  9
$UCSORG
 10
0.0
 20
0.0
 30
0.0
  9
$UCSXDIR
 10
1.0
 20
0.0
 30
0.0
  9
$UCSYDIR
 10
0.0
 20
1.0
 30
0.0
  9
$UCSORTHOREF
  2

  9
$UCSORTHOVIEW
 70
     0
  9
$UCSORGTOP
 10
0.0
 20
0.0
 30
0.0
  9
$UCSORGBOTTOM
 10
0.0
 20
0.0
 30
0.0
  9
$UCSORGLEFT
 10
0.0
 20
0.0
 30
0.0
  9
$UCSORGRIGHT
 10
0.0
 20
0.0
 30
0.0
  9
$UCSORGFRONT
 10
0.0
 20
0.0
 30
0.0
  9
$UCSORGBACK
 10
0.0
 20
0.0
 30
0.0
  9
$PUCSBASE
  2

  9
$PUCSNAME
  2

  9
$PUCSORG
 10
0.0
 20
0.0
 30
0.0
  9
$PUCSXDIR
 10
1.0
 20
0.0
 30
0.0
  9
$PUCSYDIR
 10
0.0
 20
1.0
 30
0.0
  9
$PUCSORTHOREF
  2

  9
$PUCSORTHOVIEW
 70
     0
  9
$PUCSORGTOP
 10
0.0
 20
0.0
 30
0.0
  9
$PUCSORGBOTTOM
 10
0.0
 20
0.0
 30
0.0
  9
$PUCSORGLEFT
 10
0.0
 20
0.0
 30
0.0
  9
$PUCSORGRIGHT
 10
0.0
 20
0.0
 30
0.0
  9
$PUCSORGFRONT
 10
0.0
 20
0.0
 30
0.0
  9
$PUCSORGBACK
 10
0.0
 20
0.0
 30
0.0
  9
$USERI1
 70
     0
  9
$USERI2
 70
     0
  9
$USERI3
 70
     0
  9
$USERI4
 70
     0
  9
$USERI5
 70
     0
  9
$USERR1
 40
0.0
  9
$USERR2
 40
0.0
  9
$USERR3
 40
0.0
  9
$USERR4
 40
0.0
  9
$USERR5
 40
0.0
  9
$WORLDVIEW
 70
     1
  9
$SHADEDGE
 70
     3
  9
$SHADEDIF
 70
    70
  9
$TILEMODE
 70
     1
  9
$MAXACTVP
 70
    64
  9
$PINSBASE
 10
0.0
 20
0.0
 30
0.0
  9
$PLIMCHECK
 70
     0
  9
$PEXTMIN
 10
1.0000000000E+20
 20
1.0000000000E+20
 30
1.0000000000E+20
  9
$PEXTMAX
 10
-1.0000000000E+20
 20
-1.0000000000E+20
 30
-1.0000000000E+20
  9
$PLIMMIN
 10
0.0
 20
0.0
  9
$PLIMMAX
 10
420.0
 20
297.0
  9
$UNITMODE
 70
     0
  9
$VISRETAIN
 70
     1
  9
$PLINEGEN
 70
     0
  9
$PSLTSCALE
 70
     1
  9
$TREEDEPTH
 70
  3020
  9
$CMLSTYLE
  2
Standard
  9
$CMLJUST
 70
     0
  9
$CMLSCALE
 40
20.0
  9
$PROXYGRAPHICS
 70
     1
  9
$MEASUREMENT
 70
     1
  9
$CELWEIGHT
370
    -1
  9
$ENDCAPS
280
     0
  9
$JOINSTYLE
280
     0
  9
$LWDISPLAY
290
     1
  9
$INSUNITS
 70
     4
  9
$HYPERLINKBASE
  1

  9
$STYLESHEET
  1

  9
$XEDIT
290
     1
  9
$CEPSNTYPE
380
     0
  9
$PSTYLEMODE
290
     1
  9
$FINGERPRINTGUID
  2
{cf6142e5-d798-43e1-883c-f66d19f4e8e3}
  9
$VERSIONGUID
  2
{FAEB1C32-E019-11D5-929B-00C0DF256EC4}
  9
$EXTNAMES
290
     1
  9
$PSVPSCALE
 40
0.0
  9
$OLESTARTUP
290
     0
  0
ENDSEC
  0
SECTION
  2
CLASSES
  0
CLASS
  1
ACDBDICTIONARYWDFLT
  2
AcDbDictionaryWithDefault
  3
ObjectDBX Classes
 90
        0
280
     0
281
     0
  0
CLASS
  1
VISUALSTYLE
  2
AcDbVisualStyle
  3
ObjectDBX Classes
 90
     4095
280
     0
281
     0
  0
CLASS
  1
MATERIAL
  2
AcDbMaterial
  3
ObjectDBX Classes
 90
     1153
280
     0
281
     0
  0
CLASS
  1
SCALE
  2
AcDbScale
  3
ObjectDBX Classes
 90
     1153
280
     0
281
     0
  0
CLASS
  1
TABLESTYLE
  2
AcDbTableStyle
  3
ObjectDBX Classes
 90
     4095
280
     0
281
     0
  0
CLASS
  1
MLEADERSTYLE
  2
AcDbMLeaderStyle
  3
ACDB_MLEADERSTYLE_CLASS
 90
     4095
280
     0
281
     0
  0
CLASS
  1
SUN
  2
AcDbSun
  3
SCENEOE
 90
     1153
280
     0
281
     0
  0
CLASS
  1
ACDBPLACEHOLDER
  2
AcDbPlaceHolder
  3
ObjectDBX Classes
 90
        0
280
     0
281
     0
  0
CLASS
  1
LAYOUT
  2
AcDbLayout
  3
ObjectDBX Classes
 90
        0
280
     0
281
     0
  0
ENDSEC
  0
SECTION
  2
TABLES
  0
TABLE
  2
VPORT
  5
8
330
0
100
AcDbSymbolTable
 70
     1
  0
VPORT
  5
29
330
8
100
AcDbSymbolTableRecord
100
AcDbViewportTableRecord
  2
*Active
 70
     0
 10
0.0
 20
0.0
 11
1.0
 21
1.0
 12
139.7
 22
107.95
 13
0.0
 23
0.0
 14
10.0
 24
10.0
 15
10.0
 25
10.0
 16
0.0
 26
0.0
 36
1.0
 17
0.0
 27
0.0
 37
0.0
 40
215.9
 41
1.2941176471
 42
50.0
 43
0.0
 44
0.0
 50
0.0
 51
0.0
 71
     0
 72
  2000
 73
     1
 74
     3
 75
     0
 76
     0
 77
     0
 78
     0
281
     0
 65
     1
110
0.0
120
0.0
130
0.0
111
1.0
121
0.0
131
0.0
112
0.0
122
1.0
132
0.0
 79
     0
146
0.0
  0
ENDTAB
  0
TABLE
  2
LTYPE
  5
5
330
0
100
AcDbSymbolTable
 70
     6
  0
LTYPE
  5
14
330
5
100
AcDbSymbolTableRecord
100
AcDbLinetypeTableRecord
  2
ByBlock
 70
     0
  3

 72
    65
 73
     0
 40
0.0
  0
LTYPE
  5
15
330
5
100
AcDbSymbolTableRecord
100
AcDbLinetypeTableRecord
  2
ByLayer
 70
     0
  3

 72
    65
 73
     0
 40
0.0
  0
LTYPE
  5
16
330
5
100
AcDbSymbolTableRecord
100
AcDbLinetypeTableRecord
  2
Continuous
 70
     0
  3
Solid line
 72
    65
 73
     0
 40
0.0
  0
LTYPE
  5
6E
330
5
100
AcDbSymbolTableRecord
100
AcDbLinetypeTableRecord
  2
HIDDEN
 70
     0
  3
Hidden __ __ __ __ __ __ __ __ __ __ __ __ __ __
 72
    65
 73
     2
 40
1.905
 49
1.27
 74
     0
 49
-0.635
 74
     0
  0
LTYPE
  5
6F
330
5
100
AcDbSymbolTableRecord
100
AcDbLinetypeTableRecord
  2
PHANTOM
 70
     0
  3
Phantom ______  __  __  ______  __  __  ______
 72
    65
 73
     6
 40
12.7
 49
6.35
 74
     0
 49
-1.27
 74
     0
 49
1.27
 74
     0
 49
-1.27
 74
     0
 49
1.27
 74
     0
 49
-1.27
 74
     0
  0
LTYPE
  5
70
330
5
100
AcDbSymbolTableRecord
100
AcDbLinetypeTableRecord
  2
CENTER
 70
     0
  3
Center ____ _ ____ _ ____ _ ____ _ ____ _ ____
 72
    65
 73
     4
 40
10.16
 49
6.35
 74
     0
 49
-1.27
 74
     0
 49
1.27
 74
     0
 49
-1.27
 74
     0
  0
LTYPE
  5
71
330
5
100
AcDbSymbolTableRecord
100
AcDbLinetypeTableRecord
  2
CENTERX2
 70
     0
  3
Center (2x) ________  __  ________  __  _____
 72
    65
 73
     4
 40
20.32
 49
12.7
 74
     0
 49
-2.54
 74
     0
 49
2.54
 74
     0
 49
-2.54
 74
     0
  0
LTYPE
  5
72
330
5
100
AcDbSymbolTableRecord
100
AcDbLinetypeTableRecord
  2
DOT2
 70
     0
  3
Dot (.5x) ........................................
 72
    65
 73
     2
 40
0.635
 49
0.0
 74
     0
 49
-0.635
 74
     0
  0
ENDTAB
  0
TABLE
  2
LAYER
  5
2
330
0
100
AcDbSymbolTable
 70
    17
  0
LAYER
  5
10
330
2
100
AcDbSymbolTableRecord
100
AcDbLayerTableRecord
  2
0
 70
     0
 62
     7
  6
Continuous
370
    -3
390
F
  0
LAYER
  5
73
330
2
100
AcDbSymbolTableRecord
100
AcDbLayerTableRecord
  2
FORMAT
 70
     0
 62
     7
  6
Continuous
370
    -3
390
F
  0
LAYER
  5
74
330
2
100
AcDbSymbolTableRecord
100
AcDbLayerTableRecord
  2
YARDIMCI_GEOMETRI
 70
     0
 62
    -6
  6
Continuous
290
     0
370
    -3
390
F
  0
LAYER
  5
75
330
2
100
AcDbSymbolTableRecord
100
AcDbLayerTableRecord
  2
SAYFA_CERCEVESI
 70
     0
 62
     7
  6
Continuous
370
    25
390
F
  0
LAYER
  5
76
330
2
100
AcDbSymbolTableRecord
100
AcDbLayerTableRecord
  2
ANTET
 70
     0
 62
     7
  6
Continuous
370
    -3
390
F
  0
LAYER
  5
77
330
2
100
AcDbSymbolTableRecord
100
AcDbLayerTableRecord
  2
OLCU
 70
     0
 62
   150
  6
Continuous
370
    -3
390
F
  0
LAYER
  5
78
330
2
100
AcDbSymbolTableRecord
100
AcDbLayerTableRecord
  2
METIN
 70
     0
 62
    96
  6
Continuous
370
    -3
390
F
  0
LAYER
  5
79
330
2
100
AcDbSymbolTableRecord
100
AcDbLayerTableRecord
  2
BALON
 70
     0
 62
     5
  6
Continuous
370
    -3
390
F
  0
LAYER
  5
7A
330
2
100
AcDbSymbolTableRecord
100
AcDbLayerTableRecord
  2
VURGU
 70
     0
 62
     7
  6
Continuous
370
    -3
390
F
  0
LAYER
  5
7B
330
2
100
AcDbSymbolTableRecord
100
AcDbLayerTableRecord
  2
SILIK
 70
     0
 62
     7
  6
Continuous
370
    -3
390
F
  0
LAYER
  5
7C
330
2
100
AcDbSymbolTableRecord
100
AcDbLayerTableRecord
  2
MODEL
 70
     0
 62
     7
  6
Continuous
370
    -3
390
F
  0
LAYER
  5
7D
330
2
100
AcDbSymbolTableRecord
100
AcDbLayerTableRecord
  2
DETAYLANDıRMA
 70
     0
 62
   190
  6
Continuous
370
    -3
390
F
  0
LAYER
  5
7E
330
2
100
AcDbSymbolTableRecord
100
AcDbLayerTableRecord
  2
TOLERANS
 70
     0
 62
   230
  6
Continuous
370
    -3
390
F
  0
LAYER
  5
7F
330
2
100
AcDbSymbolTableRecord
100
AcDbLayerTableRecord
  2
MERKEZ_CIZGILERI
 70
     0
 62
    30
  6
Continuous
370
    -3
390
F
  0
LAYER
  5
80
330
2
100
AcDbSymbolTableRecord
100
AcDbLayerTableRecord
  2
KESIT-DETAY_CIZGILERI
 70
     0
 62
     7
  6
Continuous
370
    -3
390
F
  0
LAYER
  5
81
330
2
100
AcDbSymbolTableRecord
100
AcDbLayerTableRecord
  2
\U+041E\U+0421\U+0415\U+0412\U+042B\U+0415
 70
     0
 62
     7
  6
Continuous
370
    -3
390
F
  0
LAYER
  5
82
330
2
100
AcDbSymbolTableRecord
100
AcDbLayerTableRecord
  2
\U+0412\U+041E\U+0414\U+042F\U+041D\U+042B\U+0415_\U+0417\U+041D\U+0410\U+041A\U+0418
 70
     0
 62
    11
  6
Continuous
370
    -3
390
F
  0
ENDTAB
  0
TABLE
  2
STYLE
  5
3
330
0
100
AcDbSymbolTable
 70
     1
  0
STYLE
  5
11
330
3
100
AcDbSymbolTableRecord
100
AcDbTextStyleTableRecord
  2
Standard
 70
     0
 40
0.0
 41
1.0
 50
0.0
 71
     0
 42
3.5
  3
txt
  4

  0
ENDTAB
  0
TABLE
  2
VIEW
  5
6
330
0
100
AcDbSymbolTable
 70
     0
  0
ENDTAB
  0
TABLE
  2
UCS
  5
7
330
0
100
AcDbSymbolTable
 70
     0
  0
ENDTAB
  0
TABLE
  2
APPID
  5
9
330
0
100
AcDbSymbolTable
 70
     1
  0
APPID
  5
12
330
9
100
AcDbSymbolTableRecord
100
AcDbRegAppTableRecord
  2
ACAD
 70
     0
  0
ENDTAB
  0
TABLE
  2
DIMSTYLE
  5
A
330
0
100
AcDbSymbolTable
 70
     1
100
AcDbDimStyleTable
  0
DIMSTYLE
105
27
330
A
100
AcDbSymbolTableRecord
100
AcDbDimStyleTableRecord
  2
ISO-25
 70
     0
 41
2.5
 42
0.625
 43
3.75
 44
1.25
 73
     0
 74
     0
 77
     1
 78
     8
140
2.5
141
2.5
143
0.0393700787
147
0.625
171
     3
172
     1
178
     0
271
     2
272
     2
274
     3
278
    44
283
     0
284
     8
340
11
  0
ENDTAB
  0
TABLE
  2
BLOCK_RECORD
  5
1
330
0
100
AcDbSymbolTable
 70
     4
  0
BLOCK_RECORD
  5
1F
330
1
100
AcDbSymbolTableRecord
100
AcDbBlockTableRecord
  2
*Model_Space
340
22
  0
BLOCK_RECORD
  5
1B
330
1
100
AcDbSymbolTableRecord
100
AcDbBlockTableRecord
  2
*Paper_Space
340
1E
  0
BLOCK_RECORD
  5
23
330
1
100
AcDbSymbolTableRecord
100
AcDbBlockTableRecord
  2
*Paper_Space0
340
26
  0
BLOCK_RECORD
  5
8C
330
1
100
AcDbSymbolTableRecord
100
AcDbBlockTableRecord
  2
SW_CENTERMARKSYMBOL_0
340
0
102
{BLKREFS
331
97
102
}
  0
BLOCK_RECORD
  5
DE
330
1
100
AcDbSymbolTableRecord
100
AcDbBlockTableRecord
  2
SW_CENTERMARKSYMBOL_1
340
0
102
{BLKREFS
331
E9
102
}
  0
BLOCK_RECORD
  5
EA
330
1
100
AcDbSymbolTableRecord
100
AcDbBlockTableRecord
  2
SW_CENTERMARKSYMBOL_2
340
0
102
{BLKREFS
331
F5
102
}
  0
ENDTAB
  0
ENDSEC
  0
SECTION
  2
BLOCKS
  0
BLOCK
  5
20
330
1F
100
AcDbEntity
  8
0
100
AcDbBlockBegin
  2
*Model_Space
 70
     0
 10
0.0
 20
0.0
 30
0.0
  3
*Model_Space
  1

  0
ENDBLK
  5
21
330
1F
100
AcDbEntity
  8
0
100
AcDbBlockEnd
  0
BLOCK
  5
1C
330
1B
100
AcDbEntity
 67
     1
  8
0
100
AcDbBlockBegin
  2
*Paper_Space
 70
     0
 10
0.0
 20
0.0
 30
0.0
  3
*Paper_Space
  1

  0
ENDBLK
  5
1D
330
1B
100
AcDbEntity
 67
     1
  8
0
100
AcDbBlockEnd
  0
BLOCK
  5
24
330
23
100
AcDbEntity
  8
0
100
AcDbBlockBegin
  2
*Paper_Space0
 70
     0
 10
0.0
 20
0.0
 30
0.0
  3
*Paper_Space0
  1

  0
ENDBLK
  5
25
330
23
100
AcDbEntity
  8
0
100
AcDbBlockEnd
  0
BLOCK
  5
8D
330
8C
100
AcDbEntity
  8
0
100
AcDbBlockBegin
  2
SW_CENTERMARKSYMBOL_0
 70
     0
 10
0.0
 20
0.0
 30
0.0
  3
SW_CENTERMARKSYMBOL_0
  1

  0
LINE
  5
8F
330
8C
100
AcDbEntity
  8
FORMAT
 62
     0
100
AcDbLine
 10
0.0
 20
0.0
 30
0.0
 11
0.0
 21
2.5
 31
0.0
  0
LINE
  5
90
330
8C
100
AcDbEntity
  8
FORMAT
 62
     0
100
AcDbLine
 10
0.0
 20
0.0
 30
0.0
 11
-2.5
 21
0.0
 31
0.0
  0
LINE
  5
91
330
8C
100
AcDbEntity
  8
FORMAT
 62
     0
100
AcDbLine
 10
0.0
 20
0.0
 30
0.0
 11
0.0
 21
-2.5
 31
0.0
  0
LINE
  5
92
330
8C
100
AcDbEntity
  8
FORMAT
 62
     0
100
AcDbLine
 10
0.0
 20
0.0
 30
0.0
 11
2.5
 21
0.0
 31
0.0
  0
LINE
  5
93
330
8C
100
AcDbEntity
  8
FORMAT
 62
     0
100
AcDbLine
 10
0.0
 20
5.0
 30
0.0
 11
0.0
 21
40.25
 31
0.0
  0
LINE
  5
94
330
8C
100
AcDbEntity
  8
FORMAT
 62
     0
100
AcDbLine
 10
-5.0
 20
0.0
 30
0.0
 11
-40.25
 21
0.0
 31
0.0
  0
LINE
  5
95
330
8C
100
AcDbEntity
  8
FORMAT
 62
     0
100
AcDbLine
 10
0.0
 20
-5.0
 30
0.0
 11
0.0
 21
-40.25
 31
0.0
  0
LINE
  5
96
330
8C
100
AcDbEntity
  8
FORMAT
 62
     0
100
AcDbLine
 10
5.0
 20
0.0
 30
0.0
 11
40.25
 21
0.0
 31
0.0
  0
ENDBLK
  5
8E
330
8C
100
AcDbEntity
  8
0
100
AcDbBlockEnd
  0
BLOCK
  5
DF
330
DE
100
AcDbEntity
  8
0
100
AcDbBlockBegin
  2
SW_CENTERMARKSYMBOL_1
 70
     0
 10
0.0
 20
0.0
 30
0.0
  3
SW_CENTERMARKSYMBOL_1
  1

  0
LINE
  5
E1
330
DE
100
AcDbEntity
  8
FORMAT
 62
     0
100
AcDbLine
 10
0.0
 20
0.0
 30
0.0
 11
0.0
 21
2.5
 31
0.0
  0
LINE
  5
E2
330
DE
100
AcDbEntity
  8
FORMAT
 62
     0
100
AcDbLine
 10
0.0
 20
0.0
 30
0.0
 11
-2.5
 21
0.0
 31
0.0
  0
LINE
  5
E3
330
DE
100
AcDbEntity
  8
FORMAT
 62
     0
100
AcDbLine
 10
0.0
 20
0.0
 30
0.0
 11
0.0
 21
-2.5
 31
0.0
  0
LINE
  5
E4
330
DE
100
AcDbEntity
  8
FORMAT
 62
     0
100
AcDbLine
 10
0.0
 20
0.0
 30
0.0
 11
2.5
 21
0.0
 31
0.0
  0
LINE
  5
E5
330
DE
100
AcDbEntity
  8
FORMAT
 62
     0
100
AcDbLine
 10
0.0
 20
5.0
 30
0.0
 11
0.0
 21
9.5
 31
0.0
  0
LINE
  5
E6
330
DE
100
AcDbEntity
  8
FORMAT
 62
     0
100
AcDbLine
 10
-5.0
 20
0.0
 30
0.0
 11
-9.5
 21
0.0
 31
0.0
  0
LINE
  5
E7
330
DE
100
AcDbEntity
  8
FORMAT
 62
     0
100
AcDbLine
 10
0.0
 20
-5.0
 30
0.0
 11
0.0
 21
-9.5
 31
0.0
  0
LINE
  5
E8
330
DE
100
AcDbEntity
  8
FORMAT
 62
     0
100
AcDbLine
 10
5.0
 20
0.0
 30
0.0
 11
9.5
 21
0.0
 31
0.0
  0
ENDBLK
  5
E0
330
DE
100
AcDbEntity
  8
0
100
AcDbBlockEnd
  0
BLOCK
  5
EB
330
EA
100
AcDbEntity
  8
0
100
AcDbBlockBegin
  2
SW_CENTERMARKSYMBOL_2
 70
     0
 10
0.0
 20
0.0
 30
0.0
  3
SW_CENTERMARKSYMBOL_2
  1

  0
LINE
  5
ED
330
EA
100
AcDbEntity
  8
FORMAT
 62
     0
100
AcDbLine
 10
0.0
 20
0.0
 30
0.0
 11
0.0
 21
2.5
 31
0.0
  0
LINE
  5
EE
330
EA
100
AcDbEntity
  8
FORMAT
 62
     0
100
AcDbLine
 10
0.0
 20
0.0
 30
0.0
 11
-2.5
 21
0.0
 31
0.0
  0
LINE
  5
EF
330
EA
100
AcDbEntity
  8
FORMAT
 62
     0
100
AcDbLine
 10
0.0
 20
0.0
 30
0.0
 11
0.0
 21
-2.5
 31
0.0
  0
LINE
  5
F0
330
EA
100
AcDbEntity
  8
FORMAT
 62
     0
100
AcDbLine
 10
0.0
 20
0.0
 30
0.0
 11
2.5
 21
0.0
 31
0.0
  0
LINE
  5
F1
330
EA
100
AcDbEntity
  8
FORMAT
 62
     0
100
AcDbLine
 10
0.0
 20
5.0
 30
0.0
 11
0.0
 21
9.5
 31
0.0
  0
LINE
  5
F2
330
EA
100
AcDbEntity
  8
FORMAT
 62
     0
100
AcDbLine
 10
-5.0
 20
0.0
 30
0.0
 11
-9.5
 21
0.0
 31
0.0
  0
LINE
  5
F3
330
EA
100
AcDbEntity
  8
FORMAT
 62
     0
100
AcDbLine
 10
0.0
 20
-5.0
 30
0.0
 11
0.0
 21
-9.5
 31
0.0
  0
LINE
  5
F4
330
EA
100
AcDbEntity
  8
FORMAT
 62
     0
100
AcDbLine
 10
5.0
 20
0.0
 30
0.0
 11
9.5
 21
0.0
 31
0.0
  0
ENDBLK
  5
EC
330
EA
100
AcDbEntity
  8
0
100
AcDbBlockEnd
  0
ENDSEC
  0
SECTION
  2
ENTITIES
  0
LINE
  5
83
330
1F
100
AcDbEntity
  8
0
  6
Continuous
 62
     7
370
    25
100
AcDbLine
 10
137.6070913462
 20
141.9538667012
 30
0.0
 11
137.6070913462
 21
155.6449519231
 31
0.0
  0
LINE
  5
84
330
1F
100
AcDbEntity
  8
0
  6
Continuous
 62
     7
370
    25
100
AcDbLine
 10
123.6070913462
 20
155.6449519231
 30
0.0
 11
123.6070913462
 21
141.9518999165
 31
0.0
  0
CIRCLE
  5
85
330
1F
100
AcDbEntity
  8
0
  6
Continuous
 62
     7
370
    25
100
AcDbCircle
 10
130.6070913462
 20
95.8949519231
 30
0.0
 40
46.09999999999999
  0
ARC
  5
86
330
1F
100
AcDbEntity
  8
0
  6
Continuous
 62
     7
370
    25
100
AcDbCircle
 10
130.6070913462
 20
95.8949519231
 30
0.0
 40
47.10000000000003
100
AcDbArc
 50
98.546959548
 51
180.0
  0
ARC
  5
87
330
1F
100
AcDbEntity
  8
0
  6
Continuous
 62
     7
370
    25
100
AcDbCircle
 10
130.6070913462
 20
95.8949519231
 30
0.0
 40
47.10000000000004
100
AcDbArc
 50
180.0
 51
81.453040452
  0
SPLINE
  5
88
330
1F
100
AcDbEntity
  8
0
  6
Continuous
 62
     7
370
    25
100
AcDbSpline
210
0.0
220
0.0
230
1.0
 70
     8
 71
     3
 72
    22
 73
    18
 74
     0
 42
0.00000001
 43
0.00000001
 40
0.0
 40
0.0
 40
0.0
 40
0.0
 40
0.0712883744183657
 40
0.1425761062813553
 40
0.2138762858512629
 40
0.2851745131747849
 40
0.3562094438250993
 40
0.4272447868123424
 40
0.4980671954134508
 40
0.5688915717847096
 40
0.6400191013036637
 40
0.7111463791115812
 40
0.782531105108545
 40
0.8539130208397484
 40
0.9249389851972886
 40
0.9959642342530617
 40
1.0
 40
1.0
 40
1.0
 40
1.0
 10
135.6100003814238
 20
142.0309744642815
 30
0.0
 10
135.3208420023078
 20
142.0502087159778
 30
0.0
 10
134.7425278503952
 20
142.0886770460031
 30
0.0
 10
133.721169989517
 20
142.1445356236778
 30
0.0
 10
132.6194489009352
 20
142.1879553577602
 30
0.0
 10
131.4597829146747
 20
142.2145700858469
 30
0.0
 10
130.2774025450953
 20
142.2189613541444
 30
0.0
 10
129.10667677352
 20
142.2024922799794
 30
0.0
 10
127.9807506087814
 20
142.1657546026333
 30
0.0
 10
126.9270200968333
 20
142.1152733858503
 30
0.0
 10
125.9778415642455
 20
142.0570679023625
 30
0.0
 10
125.1539207803524
 20
141.9998836742518
 30
0.0
 10
124.4881622900105
 20
141.9532313504746
 30
0.0
 10
123.9868654124347
 20
141.9233844873036
 30
0.0
 10
123.6999741267176
 20
141.9222814153393
 30
0.0
 10
123.5781271428955
 20
141.9321063735021
 30
0.0
 10
123.610632080974
 20
141.9508899878895
 30
0.0
 10
123.6123797567288
 20
141.9518999165156
 30
0.0
  0
SPLINE
  5
89
330
1F
100
AcDbEntity
  8
0
  6
Continuous
 62
     7
370
    25
100
AcDbSpline
210
0.0
220
0.0
230
1.0
 70
     8
 71
     3
 72
    12
 73
     8
 74
     0
 42
0.00000001
 43
0.00000001
 40
0.0
 40
0.0
 40
0.0
 40
0.0
 40
0.0517938418691034
 40
0.2695350775691868
 40
0.4853169223930218
 40
0.7011063362688514
 40
1.0
 40
1.0
 40
1.0
 40
1.0
 10
137.5885303706011
 20
141.9538667012462
 30
0.0
 10
137.5939149025206
 20
141.9499151760086
 30
0.0
 10
137.6219359987786
 20
141.9293514444335
 30
0.0
 10
137.4793027845891
 20
141.919897639637
 30
0.0
 10
137.1480440281576
 20
141.927562438474
 30
0.0
 10
136.5692296307
 20
141.963517575147
 30
0.0
 10
135.9624041930208
 20
142.0061919997482
 30
0.0
 10
135.6100003814238
 20
142.0309744642815
 30
0.0
  0
CIRCLE
  5
8A
330
1F
100
AcDbEntity
  8
0
  6
Continuous
 62
     7
370
    25
100
AcDbCircle
 10
130.6070913462
 20
95.8949519231
 30
0.0
 40
37.74999999999999
  0
LINE
  5
8B
330
1F
100
AcDbEntity
  8
0
  6
Continuous
 62
     7
370
    25
100
AcDbLine
 10
137.6070913462
 20
155.6449519231
 30
0.0
 11
123.6070913462
 21
155.6449519231
 31
0.0
  0
INSERT
  5
97
330
1F
100
AcDbEntity
  8
FORMAT
 62
     7
100
AcDbBlockReference
  2
SW_CENTERMARKSYMBOL_0
 10
130.6070913462
 20
95.8949519231
 30
0.0
  0
ARC
  5
98
330
1F
100
AcDbEntity
  8
0
  6
Continuous
 62
     7
370
    25
100
AcDbCircle
 10
271.153915488
 20
-760.6300480769
 30
0.0
 40
903.6249999999997
100
AcDbArc
 50
92.3768250034
 51
92.6957745604
  0
ARC
  5
99
330
1F
100
AcDbEntity
  8
0
  6
Continuous
 62
     7
370
    25
100
AcDbCircle
 10
271.153915488
 20
-760.6300480769
 30
0.0
 40
903.6249999999998
100
AcDbArc
 50
90.0
 51
91.4910949703
  0
ARC
  5
9A
330
1F
100
AcDbEntity
  8
0
  6
Continuous
 62
     7
370
    25
100
AcDbCircle
 10
271.153915488
 20
952.4199519231
 30
0.0
 40
903.6249999999995
100
AcDbArc
 50
267.3042254396
 51
270.0
  0
LINE
  5
9B
330
1F
100
AcDbEntity
  8
0
  6
Continuous
 62
     7
370
    25
100
AcDbLine
 10
271.153915488
 20
48.7949519231
 30
0.0
 11
296.153915488
 21
48.7949519231
 31
0.0
  0
LINE
  5
9C
330
1F
100
AcDbEntity
  8
0
  6
Continuous
 62
     7
370
    25
100
AcDbLine
 10
296.153915488
 20
142.9949519231
 30
0.0
 11
271.153915488
 21
142.9949519231
 31
0.0
  0
ARC
  5
9D
330
1F
100
AcDbEntity
  8
0
  6
Continuous
 62
     7
370
    25
100
AcDbCircle
 10
296.153915488
 20
-760.6300480769
 30
0.0
 40
903.6249999999997
100
AcDbArc
 50
88.5082154689
 51
90.0
  0
ARC
  5
9E
330
1F
100
AcDbEntity
  8
0
  6
Continuous
 62
     7
370
    25
100
AcDbCircle
 10
296.153915488
 20
-760.6300480769
 30
0.0
 40
903.6249999999997
100
AcDbArc
 50
87.3042254396
 51
87.6227579937
  0
ARC
  5
9F
330
1F
100
AcDbEntity
  8
0
  6
Continuous
 62
     7
370
    25
100
AcDbCircle
 10
296.153915488
 20
952.4199519231
 30
0.0
 40
903.6249999999995
100
AcDbArc
 50
270.0
 51
272.6957745604
  0
LINE
  5
A0
330
1F
100
AcDbEntity
  8
0
  6
Continuous
 62
     7
370
    25
100
AcDbLine
 10
247.653915488
 20
142.6869350886
 30
0.0
 11
247.653915488
 21
155.6449519231
 31
0.0
  0
LINE
  5
A1
330
1F
100
AcDbEntity
  8
0
  6
Continuous
 62
     7
370
    25
100
AcDbLine
 10
233.653915488
 20
155.6449519231
 30
0.0
 11
233.653915488
 21
142.2137117445
 31
0.0
  0
LINE
  5
A2
330
1F
100
AcDbEntity
  8
0
  6
Continuous
 62
     7
370
    25
100
AcDbLine
 10
333.653915488
 20
142.2144413355
 30
0.0
 11
333.653915488
 21
155.6449519231
 31
0.0
  0
LINE
  5
A3
330
1F
100
AcDbEntity
  8
0
  6
Continuous
 62
     7
370
    25
100
AcDbLine
 10
319.653915488
 20
155.6449519231
 30
0.0
 11
319.653915488
 21
142.6850149103
 31
0.0
  0
LINE
  5
A4
330
1F
100
AcDbEntity
  8
0
  6
Continuous
 62
     7
370
    25
100
AcDbLine
 10
228.653915488
 20
95.8949519231
 30
0.0
 11
228.653915488
 21
141.9949519231
 31
0.0
  0
LINE
  5
A5
330
1F
100
AcDbEntity
  8
0
  6
Continuous
 62
     7
370
    25
100
AcDbLine
 10
228.653915488
 20
49.7949519231
 30
0.0
 11
228.653915488
 21
95.8949519231
 31
0.0
  0
SPLINE
  5
A6
330
1F
100
AcDbEntity
  8
0
  6
Continuous
 62
     7
370
    25
100
AcDbSpline
210
0.0
220
0.0
230
1.0
 70
     8
 71
     3
 72
    27
 73
    23
 74
     0
 42
0.00000001
 43
0.00000001
 40
0.0
 40
0.0
 40
0.0
 40
0.0
 40
0.0091436087081759
 40
0.063113174465556
 40
0.1152000408234108
 40
0.1687737504092491
 40
0.2213106609952554
 40
0.2753335635733605
 40
0.3285236651052202
 40
0.3832528121106291
 40
0.4364625194130506
 40
0.4912474323586937
 40
0.5438970571938577
 40
0.5980928169030231
 40
0.6504381123879807
 40
0.7042864603094904
 40
0.756911946090945
 40
0.81104456710308
 40
0.8639871661874196
 40
0.9184710565088112
 40
0.9712910075175479
 40
1.0
 40
1.0
 40
1.0
 40
1.0
 10
247.6402210560637
 20
142.6869279183934
 30
0.0
 10
247.6445485317123
 20
142.687685470751
 30
0.0
 10
247.6744186556775
 20
142.692914427462
 30
0.0
 10
247.5402660113354
 20
142.6693215930281
 30
0.0
 10
247.2288787036725
 20
142.6159421216376
 30
0.0
 10
246.7231629482027
 20
142.5332494396994
 30
0.0
 10
246.0482948902174
 20
142.4309477205425
 30
0.0
 10
245.2242366856811
 20
142.3183706892121
 30
0.0
 10
244.2600958637201
 20
142.204159371244
 30
0.0
 10
243.1971008790735
 20
142.1002458172958
 30
0.0
 10
242.0495959330381
 20
142.0141914985004
 30
0.0
 10
240.8748895304386
 20
141.9543633030288
 30
0.0
 10
239.6862649749158
 20
141.9230256858216
 30
0.0
 10
238.5417165500831
 20
141.9206434136695
 30
0.0
 10
237.4488297110926
 20
141.9438120952284
 30
0.0
 10
236.4556738448278
 20
141.9863947493994
 30
0.0
 10
235.5699250927627
 20
142.0416105503649
 30
0.0
 10
234.8319991823315
 20
142.1000109007377
 30
0.0
 10
234.2483115710144
 20
142.1541610580291
 30
0.0
 10
233.8602025776311
 20
142.1940199600681
 30
0.0
 10
233.6625336577459
 20
142.2155512871045
 30
0.0
 10
233.6750281689825
 20
142.2141907508463
 30
0.0
 10
233.6794278927347
 20
142.2137116617825
 30
0.0
  0
LINE
  5
A7
330
1F
100
AcDbEntity
  8
0
  6
Continuous
 62
     7
370
    25
100
AcDbLine
 10
338.653915488
 20
95.8949519231
 30
0.0
 11
338.653915488
 21
141.9949519231
 31
0.0
  0
LINE
  5
A8
330
1F
100
AcDbEntity
  8
0
  6
Continuous
 62
     7
370
    25
100
AcDbLine
 10
338.653915488
 20
49.7949519231
 30
0.0
 11
338.653915488
 21
95.8949519231
 31
0.0
  0
SPLINE
  5
A9
330
1F
100
AcDbEntity
  8
0
  6
Continuous
 62
     7
370
    25
100
AcDbSpline
210
0.0
220
0.0
230
1.0
 70
     8
 71
     3
 72
    27
 73
    23
 74
     0
 42
0.00000001
 43
0.00000001
 40
0.0
 40
0.0
 40
0.0
 40
0.0
 40
0.0141646258041752
 40
0.0683988896033897
 40
0.1209489158562723
 40
0.1750106669984861
 40
0.2277857323105524
 40
0.2820799815225494
 40
0.3350324290501271
 40
0.3895348204890057
 40
0.4422190768540317
 40
0.4964514026082463
 40
0.5488047023350178
 40
0.6026657050992499
 40
0.6552366904393838
 40
0.7092997954126838
 40
0.7624422247624423
 40
0.8171174214807351
 40
0.8703640729288057
 40
0.9251890111975669
 40
0.9778271732333348
 40
1.0
 40
1.0
 40
1.0
 40
1.0
 10
333.6350208161331
 20
142.2144377365588
 30
0.0
 10
333.640605165526
 20
142.2150473389604
 30
0.0
 10
333.6675711653988
 20
142.2179910190791
 30
0.0
 10
333.518077761724
 20
142.2015871357374
 30
0.0
 10
333.1824393065842
 20
142.1664842979021
 30
0.0
 10
332.65256434218
 20
142.1156536349727
 30
0.0
 10
331.9517874480138
 20
142.0573932294816
 30
0.0
 10
331.1053100319255
 20
142.0004649238525
 30
0.0
 10
330.1231377475761
 20
141.9530687458205
 30
0.0
 10
329.0514451418563
 20
141.9242227731387
 30
0.0
 10
327.9031573802497
 20
141.9198992441895
 30
0.0
 10
326.734780289647
 20
141.9436854131985
 30
0.0
 10
325.5571100504217
 20
141.996393081295
 30
0.0
 10
324.4229409261872
 20
142.0742748501549
 30
0.0
 10
323.3408822995029
 20
142.1732665120665
 30
0.0
 10
322.3564697318953
 20
142.2841483348434
 30
0.0
 10
321.4809850442673
 20
142.3992913815082
 30
0.0
 10
320.7565048538008
 20
142.5062996150419
 30
0.0
 10
320.1899040125996
 20
142.597327479195
 30
0.0
 10
319.8259329462849
 20
142.6591582296176
 30
0.0
 10
319.6519701884981
 20
142.6896639593919
 30
0.0
 10
319.6724407473662
 20
142.6860768197713
 30
0.0
 10
319.6785079062537
 20
142.6850136467447
 30
0.0
  0
LINE
  5
AA
330
1F
100
AcDbEntity
  8
0
  6
Continuous
 62
     7
370
    25
100
AcDbLine
 10
247.653915488
 20
155.6449519231
 30
0.0
 11
233.653915488
 21
155.6449519231
 31
0.0
  0
LINE
  5
AB
330
1F
100
AcDbEntity
  8
0
  6
Continuous
 62
     7
370
    25
100
AcDbLine
 10
333.653915488
 20
155.6449519231
 30
0.0
 11
319.653915488
 21
155.6449519231
 31
0.0
  0
LINE
  5
AC
330
1F
100
AcDbEntity
  8
0
  6
Continuous
 62
     1
370
    25
100
AcDbLine
 10
271.153915488
 20
95.8949519231
 30
0.0
 11
271.153915488
 21
142.9949519231
 31
0.0
  0
LINE
  5
AD
330
1F
100
AcDbEntity
  8
0
  6
Continuous
 62
     1
370
    25
100
AcDbLine
 10
271.153915488
 20
48.7949519231
 30
0.0
 11
271.153915488
 21
95.8949519231
 31
0.0
  0
LINE
  5
AE
330
1F
100
AcDbEntity
  8
0
  6
Continuous
 62
     1
370
    25
100
AcDbLine
 10
296.153915488
 20
95.8949519231
 30
0.0
 11
296.153915488
 21
142.9949519231
 31
0.0
  0
LINE
  5
AF
330
1F
100
AcDbEntity
  8
0
  6
Continuous
 62
     1
370
    25
100
AcDbLine
 10
296.153915488
 20
48.7949519231
 30
0.0
 11
296.153915488
 21
95.8949519231
 31
0.0
  0
ARC
  5
B0
330
1F
100
AcDbEntity
  8
0
  6
Continuous
 62
     7
370
    25
100
AcDbCircle
 10
987.1320913462
 20
256.5208124194
 30
0.0
 40
903.6249999999995
100
AcDbArc
 50
180.0
 51
182.6957745604
  0
ARC
  5
B1
330
1F
100
AcDbEntity
  8
0
  6
Continuous
 62
     7
370
    25
100
AcDbCircle
 10
-725.9179086538
 20
256.5208124194
 30
0.0
 40
903.6249999999995
100
AcDbArc
 50
357.3042254396
 51
0.0
  0
LINE
  5
B2
330
1F
100
AcDbEntity
  8
0
  6
Continuous
 62
     7
370
    25
100
AcDbLine
 10
177.7070913462
 20
256.5208124194
 30
0.0
 11
177.7070913462
 21
281.5208124194
 31
0.0
  0
LINE
  5
B3
330
1F
100
AcDbEntity
  8
0
  6
Continuous
 62
     7
370
    25
100
AcDbLine
 10
83.5070913462
 20
281.5208124194
 30
0.0
 11
83.5070913462
 21
256.5208124194
 31
0.0
  0
ARC
  5
B4
330
1F
100
AcDbEntity
  8
0
  6
Continuous
 62
     7
370
    25
100
AcDbCircle
 10
987.1320913462
 20
281.5208124194
 30
0.0
 40
903.6249999999995
100
AcDbArc
 50
177.3042254396
 51
180.0
  0
ARC
  5
B5
330
1F
100
AcDbEntity
  8
0
  6
Continuous
 62
     7
370
    25
100
AcDbCircle
 10
-725.9179086538
 20
281.5208124194
 30
0.0
 40
903.6249999999995
100
AcDbArc
 50
0.0
 51
2.6957745604
  0
LINE
  5
B6
330
1F
100
AcDbEntity
  8
0
  6
Continuous
 62
     7
370
    25
100
AcDbLine
 10
176.7070913462
 20
214.0208124194
 30
0.0
 11
84.5070913462
 21
214.0208124194
 31
0.0
  0
LINE
  5
B7
330
1F
100
AcDbEntity
  8
0
  6
Continuous
 62
     7
370
    25
100
AcDbLine
 10
176.7070913462
 20
324.0208124194
 30
0.0
 11
84.5070913462
 21
324.0208124194
 31
0.0
  0
LINE
  5
B8
330
1F
100
AcDbEntity
  8
0
  6
Continuous
 62
     1
370
    25
100
AcDbLine
 10
177.7070913462
 20
256.5208124194
 30
0.0
 11
83.5070913462
 21
256.5208124194
 31
0.0
  0
LINE
  5
B9
330
1F
100
AcDbEntity
  8
0
  6
Continuous
 62
     1
370
    25
100
AcDbLine
 10
177.7070913462
 20
281.5208124194
 30
0.0
 11
83.5070913462
 21
281.5208124194
 31
0.0
  0
ARC
  5
BA
330
1F
100
AcDbEntity
  8
0
  6
Continuous
 62
     7
370
    25
100
AcDbCircle
 10
-22.4700453582
 20
952.4199519231
 30
0.0
 40
903.6249999999995
100
AcDbArc
 50
270.0
 51
272.6957745604
  0
ARC
  5
BB
330
1F
100
AcDbEntity
  8
0
  6
Continuous
 62
     7
370
    25
100
AcDbCircle
 10
-22.4700453582
 20
-760.6300480769
 30
0.0
 40
903.6249999999997
100
AcDbArc
 50
88.5089091783
 51
90.0
  0
ARC
  5
BC
330
1F
100
AcDbEntity
  8
0
  6
Continuous
 62
     7
370
    25
100
AcDbCircle
 10
-22.4700453582
 20
-760.6300480769
 30
0.0
 40
903.6249999999997
100
AcDbArc
 50
87.3042254396
 51
87.6231758691
  0
LINE
  5
BD
330
1F
100
AcDbEntity
  8
0
  6
Continuous
 62
     7
370
    25
100
AcDbLine
 10
-22.4700453582
 20
142.9949519231
 30
0.0
 11
-47.4700453582
 21
142.9949519231
 31
0.0
  0
LINE
  5
BE
330
1F
100
AcDbEntity
  8
0
  6
Continuous
 62
     7
370
    25
100
AcDbLine
 10
-47.4700453582
 20
48.7949519231
 30
0.0
 11
-22.4700453582
 21
48.7949519231
 31
0.0
  0
ARC
  5
BF
330
1F
100
AcDbEntity
  8
0
  6
Continuous
 62
     7
370
    25
100
AcDbCircle
 10
-47.4700453582
 20
952.4199519231
 30
0.0
 40
903.6249999999995
100
AcDbArc
 50
267.3042254396
 51
270.0
  0
ARC
  5
C0
330
1F
100
AcDbEntity
  8
0
  6
Continuous
 62
     7
370
    25
100
AcDbCircle
 10
-47.4700453582
 20
-760.6300480769
 30
0.0
 40
903.6249999999997
100
AcDbArc
 50
92.3772422654
 51
92.6957745604
  0
ARC
  5
C1
330
1F
100
AcDbEntity
  8
0
  6
Continuous
 62
     7
370
    25
100
AcDbCircle
 10
-47.4700453582
 20
-760.6300480769
 30
0.0
 40
903.6249999999997
100
AcDbArc
 50
90.0
 51
91.4917899438
  0
LINE
  5
C2
330
1F
100
AcDbEntity
  8
0
  6
Continuous
 62
     7
370
    25
100
AcDbLine
 10
15.0299546418
 20
142.2137117445
 30
0.0
 11
15.0299546418
 21
155.6449519231
 31
0.0
  0
LINE
  5
C3
330
1F
100
AcDbEntity
  8
0
  6
Continuous
 62
     7
370
    25
100
AcDbLine
 10
1.0299546418
 20
155.6449519231
 30
0.0
 11
1.0299546418
 21
142.6869350886
 31
0.0
  0
LINE
  5
C4
330
1F
100
AcDbEntity
  8
0
  6
Continuous
 62
     7
370
    25
100
AcDbLine
 10
-70.9700453582
 20
142.6850149103
 30
0.0
 11
-70.9700453582
 21
155.6449519231
 31
0.0
  0
LINE
  5
C5
330
1F
100
AcDbEntity
  8
0
  6
Continuous
 62
     7
370
    25
100
AcDbLine
 10
-84.9700453582
 20
155.6449519231
 30
0.0
 11
-84.9700453582
 21
142.2144413355
 31
0.0
  0
LINE
  5
C6
330
1F
100
AcDbEntity
  8
0
  6
Continuous
 62
     7
370
    25
100
AcDbLine
 10
20.0299546418
 20
141.9949519231
 30
0.0
 11
20.0299546418
 21
49.7949519231
 31
0.0
  0
SPLINE
  5
C7
330
1F
100
AcDbEntity
  8
0
  6
Continuous
 62
     7
370
    25
100
AcDbSpline
210
0.0
220
0.0
230
1.0
 70
     8
 71
     3
 72
    12
 73
     8
 74
     0
 42
0.00000001
 43
0.00000001
 40
0.0
 40
0.0
 40
0.0
 40
0.0
 40
0.205093402642496
 40
0.4160808030830975
 40
0.6211909966462456
 40
0.8323614776145926
 40
1.0
 40
1.0
 40
1.0
 40
1.0
 10
3.206339249202418
 20
142.3539630688336
 30
0.0
 10
2.938839598249733
 20
142.3907511998478
 30
0.0
 10
2.396152860603399
 20
142.4653846834171
 30
0.0
 10
1.777732662339819
 20
142.5627982380842
 30
0.0
 10
1.32651812015866
 20
142.6376213518636
 30
0.0
 10
1.066832727791886
 20
142.6828375953646
 30
0.0
 10
1.050771341361105
 20
142.6856713421344
 30
0.0
 10
1.04366351904199
 20
142.6869253913177
 30
0.0
  0
SPLINE
  5
C8
330
1F
100
AcDbEntity
  8
0
  6
Continuous
 62
     7
370
    25
100
AcDbSpline
210
0.0
220
0.0
230
1.0
 70
     8
 71
     3
 72
    21
 73
    17
 74
     0
 42
0.00000001
 43
0.00000001
 40
0.0
 40
0.0
 40
0.0
 40
0.0
 40
0.0345907126153394
 40
0.1054562262888454
 40
0.178371116717664
 40
0.2493622726047595
 40
0.3223907530015824
 40
0.3937463986778516
 40
0.4671760665103318
 40
0.538413736378578
 40
0.6117482965509207
 40
0.6824539184746341
 40
0.7552154626304882
 40
0.8258711993605333
 40
0.8985378478784584
 40
1.0
 40
1.0
 40
1.0
 40
1.0
 10
15.0044423256185
 20
142.2137116714403
 30
0.0
 10
15.00986575566354
 20
142.2143034341246
 30
0.0
 10
15.0264000916991
 20
142.2161075328214
 30
0.0
 10
14.84132485288986
 20
142.1959114147657
 30
0.0
 10
14.46855749294517
 20
142.1574426231062
 30
0.0
 10
13.89960485197088
 20
142.1041840858676
 30
0.0
 10
13.17301063378586
 20
142.045860035836
 30
0.0
 10
12.29147080704412
 20
141.9897514389031
 30
0.0
 10
11.29602937234658
 20
141.9457563989322
 30
0.0
 10
10.19817184252913
 20
141.9211671925655
 30
0.0
 10
9.052047363324531
 20
141.9222917615894
 30
0.0
 10
7.870141455527863
 20
141.9521265461705
 30
0.0
 10
6.70703516115468
 20
142.0097722136688
 30
0.0
 10
5.575239986267445
 20
142.0928894172735
 30
0.0
 10
4.359380834007894
 20
142.208706526161
 30
0.0
 10
3.630845494810013
 20
142.3004851107162
 30
0.0
 10
3.206339249202418
 20
142.3539630688336
 30
0.0
  0
LINE
  5
C9
330
1F
100
AcDbEntity
  8
0
  6
Continuous
 62
     7
370
    25
100
AcDbLine
 10
-89.9700453582
 20
141.9949519231
 30
0.0
 11
-89.9700453582
 21
49.7949519231
 31
0.0
  0
SPLINE
  5
CA
330
1F
100
AcDbEntity
  8
0
  6
Continuous
 62
     7
370
    25
100
AcDbSpline
210
0.0
220
0.0
230
1.0
 70
     8
 71
     3
 72
    12
 73
     8
 74
     0
 42
0.00000001
 43
0.00000001
 40
0.0
 40
0.0
 40
0.0
 40
0.0
 40
0.208918323792535
 40
0.4238791128519422
 40
0.6328019681464214
 40
0.847825465875307
 40
0.9999999999999999
 40
0.9999999999999999
 40
0.9999999999999999
 40
0.9999999999999999
 10
-82.86605405763014
 20
142.0309744642815
 30
0.0
 10
-83.13008510230591
 20
142.0499468510563
 30
0.0
 10
-83.66578366120144
 20
142.0884403557372
 30
0.0
 10
-84.27015142447198
 20
142.1440930621464
 30
0.0
 10
-84.70393519097946
 20
142.1875945606926
 30
0.0
 10
-84.94266119510343
 20
142.2134953907731
 30
0.0
 10
-84.94865929738914
 20
142.2141611968198
 30
0.0
 10
-84.95114503625966
 20
142.2144371207524
 30
0.0
  0
SPLINE
  5
CB
330
1F
100
AcDbEntity
  8
0
  6
Continuous
 62
     7
370
    25
100
AcDbSpline
210
0.0
220
0.0
230
1.0
 70
     8
 71
     3
 72
    21
 73
    17
 74
     0
 42
0.00000001
 43
0.00000001
 40
0.0
 40
0.0
 40
0.0
 40
0.0
 40
0.0428947711200641
 40
0.1126748296629741
 40
0.1844633565145467
 40
0.2545625687597612
 40
0.3266424426608575
 40
0.3976706562999642
 40
0.4707363236540908
 40
0.5421051819282777
 40
0.6155780547098144
 40
0.686325918750899
 40
0.7591628689245075
 40
0.8292970198272607
 40
0.9014565138662118
 40
1.0
 40
1.0
 40
1.0
 40
1.0
 10
-70.99463657306207
 20
142.6850138574466
 30
0.0
 10
-70.99183541854221
 20
142.6855018086881
 30
0.0
 10
-70.98447742128182
 20
142.6867835458691
 30
0.0
 10
-71.19111392163602
 20
142.650677590484
 30
0.0
 10
-71.5817279825336
 20
142.5848280698963
 30
0.0
 10
-72.16174584362157
 20
142.4926207746212
 30
0.0
 10
-72.89725417225385
 20
142.3853764018418
 30
0.0
 10
-73.78571081600617
 20
142.2703833444968
 30
0.0
 10
-74.78993451193833
 20
142.1597239382085
 30
0.0
 10
-75.89743641224446
 20
142.0616622606264
 30
0.0
 10
-77.05441471384036
 20
141.9862842463265
 30
0.0
 10
-78.24605892391533
 20
141.9376846231535
 30
0.0
 10
-79.41382206113911
 20
141.9187011264684
 30
0.0
 10
-80.54499753475412
 20
141.9275350641921
 30
0.0
 10
-81.74292022973123
 20
141.9632326382216
 30
0.0
 10
-82.45499008225399
 20
142.0061811372284
 30
0.0
 10
-82.86605405763015
 20
142.0309744642815
 30
0.0
  0
LINE
  5
CC
330
1F
100
AcDbEntity
  8
0
  6
Continuous
 62
     7
370
    25
100
AcDbLine
 10
15.0299546418
 20
155.6449519231
 30
0.0
 11
1.0299546418
 21
155.6449519231
 31
0.0
  0
LINE
  5
CD
330
1F
100
AcDbEntity
  8
0
  6
Continuous
 62
     7
370
    25
100
AcDbLine
 10
-70.9700453582
 20
155.6449519231
 30
0.0
 11
-84.9700453582
 21
155.6449519231
 31
0.0
  0
LINE
  5
CE
330
1F
100
AcDbEntity
  8
0
  6
Continuous
 62
     1
370
    25
100
AcDbLine
 10
-22.4700453582
 20
142.9949519231
 30
0.0
 11
-22.4700453582
 21
48.7949519231
 31
0.0
  0
LINE
  5
CF
330
1F
100
AcDbEntity
  8
0
  6
Continuous
 62
     1
370
    25
100
AcDbLine
 10
-47.4700453582
 20
142.9949519231
 30
0.0
 11
-47.4700453582
 21
48.7949519231
 31
0.0
  0
ARC
  5
D0
330
1F
100
AcDbEntity
  8
0
  6
Continuous
 62
     7
370
    25
100
AcDbCircle
 10
-725.9179086538
 20
-36.1535872327
 30
0.0
 40
903.6249999999995
100
AcDbArc
 50
0.0
 51
2.6957745604
  0
ARC
  5
D1
330
1F
100
AcDbEntity
  8
0
  6
Continuous
 62
     7
370
    25
100
AcDbCircle
 10
987.1320913462
 20
-36.1535872327
 30
0.0
 40
903.6249999999995
100
AcDbArc
 50
177.3042254396
 51
180.0
  0
LINE
  5
D2
330
1F
100
AcDbEntity
  8
0
  6
Continuous
 62
     7
370
    25
100
AcDbLine
 10
83.5070913462
 20
-36.1535872327
 30
0.0
 11
83.5070913462
 21
-61.1535872327
 31
0.0
  0
LINE
  5
D3
330
1F
100
AcDbEntity
  8
0
  6
Continuous
 62
     7
370
    25
100
AcDbLine
 10
177.7070913462
 20
-61.1535872327
 30
0.0
 11
177.7070913462
 21
-36.1535872327
 31
0.0
  0
ARC
  5
D4
330
1F
100
AcDbEntity
  8
0
  6
Continuous
 62
     7
370
    25
100
AcDbCircle
 10
-725.9179086538
 20
-61.1535872327
 30
0.0
 40
903.6249999999995
100
AcDbArc
 50
357.3042254396
 51
0.0
  0
ARC
  5
D5
330
1F
100
AcDbEntity
  8
0
  6
Continuous
 62
     7
370
    25
100
AcDbCircle
 10
987.1320913462
 20
-61.1535872327
 30
0.0
 40
903.6249999999995
100
AcDbArc
 50
180.0
 51
182.6957745604
  0
CIRCLE
  5
D6
330
1F
100
AcDbEntity
  8
0
  6
Continuous
 62
     7
370
    25
100
AcDbCircle
 10
130.6070913462
 20
-5.6535872327
 30
0.0
 40
5.000000000000004
  0
CIRCLE
  5
D7
330
1F
100
AcDbEntity
  8
0
  6
Continuous
 62
     7
370
    25
100
AcDbCircle
 10
130.6070913462
 20
-5.6535872327
 30
0.0
 40
7.00000000000002
  0
CIRCLE
  5
D8
330
1F
100
AcDbEntity
  8
0
  6
Continuous
 62
     7
370
    25
100
AcDbCircle
 10
130.6070913462
 20
-91.6535872327
 30
0.0
 40
7.0
  0
CIRCLE
  5
D9
330
1F
100
AcDbEntity
  8
0
  6
Continuous
 62
     7
370
    25
100
AcDbCircle
 10
130.6070913462
 20
-91.6535872327
 30
0.0
 40
5.0
  0
LINE
  5
DA
330
1F
100
AcDbEntity
  8
0
  6
Continuous
 62
     7
370
    25
100
AcDbLine
 10
84.5070913462
 20
6.3464127673
 30
0.0
 11
176.7070913462
 21
6.3464127673
 31
0.0
  0
LINE
  5
DB
330
1F
100
AcDbEntity
  8
0
  6
Continuous
 62
     7
370
    25
100
AcDbLine
 10
84.5070913462
 20
-103.6535872327
 30
0.0
 11
176.7070913462
 21
-103.6535872327
 31
0.0
  0
LINE
  5
DC
330
1F
100
AcDbEntity
  8
0
  6
Continuous
 62
     1
370
    25
100
AcDbLine
 10
83.5070913462
 20
-36.1535872327
 30
0.0
 11
177.7070913462
 21
-36.1535872327
 31
0.0
  0
LINE
  5
DD
330
1F
100
AcDbEntity
  8
0
  6
Continuous
 62
     1
370
    25
100
AcDbLine
 10
83.5070913462
 20
-61.1535872327
 30
0.0
 11
177.7070913462
 21
-61.1535872327
 31
0.0
  0
INSERT
  5
E9
330
1F
100
AcDbEntity
  8
FORMAT
 62
     7
100
AcDbBlockReference
  2
SW_CENTERMARKSYMBOL_1
 10
130.6070913462
 20
-5.6535872327
 30
0.0
  0
INSERT
  5
F5
330
1F
100
AcDbEntity
  8
FORMAT
 62
     7
100
AcDbBlockReference
  2
SW_CENTERMARKSYMBOL_2
 10
130.6070913462
 20
-91.6535872327
 30
0.0
  0
LINE
  5
F6
330
1F
100
AcDbEntity
  8
0
  6
Continuous
 62
     7
370
    25
100
AcDbLine
 10
248.3865761096
 20
-5.8055206485
 30
0.0
 11
246.401467532
 21
-6.9593946346
 31
0.0
  0
SPLINE
  5
F7
330
1F
100
AcDbEntity
  8
0
  6
Continuous
 62
     7
370
    25
100
AcDbSpline
210
0.0
220
0.0
230
1.0
 70
     8
 71
     3
 72
    12
 73
     8
 74
     0
 42
0.00000001
 43
0.00000001
 40
0.0
 40
0.0
 40
0.0
 40
0.0
 40
0.0464427708364055
 40
0.3126885007440975
 40
0.5788352905546612
 40
0.8448621511509489
 40
1.0
 40
1.0
 40
1.0
 40
1.0
 10
244.4650149083459
 20
-8.084986621339063
 30
0.0
 10
244.0487822207811
 20
-8.326439652355255
 30
0.0
 10
241.2463832103133
 20
-9.952087409990536
 30
0.0
 10
236.1127778030167
 20
-13.05294204193301
 30
0.0
 10
229.0743965155261
 20
-17.39561233955834
 30
0.0
 10
223.0629360146169
 20
-21.20801092554041
 30
0.0
 10
219.4216124015047
 20
-23.60495113085843
 30
0.0
 10
218.0803150429357
 20
-24.48787445974457
 30
0.0
  0
SPLINE
  5
F8
330
1F
100
AcDbEntity
  8
0
  6
Continuous
 62
     7
370
    25
100
AcDbSpline
210
0.0
220
0.0
230
1.0
 70
     8
 71
     3
 72
    13
 73
     9
 74
     0
 42
0.00000001
 43
0.00000001
 40
0.0
 40
0.0
 40
0.0
 40
0.0
 40
0.0056242711050697
 40
0.2380861568339539
 40
0.4705604393974773
 40
0.7030282156238934
 40
0.93547084114363
 40
1.0
 40
1.0
 40
1.0
 40
1.0
 10
264.1421708257824
 20
-104.2811637825587
 30
0.0
 10
264.2019545930632
 20
-104.2515893988566
 30
0.0
 10
266.7327158467453
 20
-102.9996491518724
 30
0.0
 10
271.6920391992066
 20
-100.4322512109235
 30
0.0
 10
279.0150056292867
 20
-96.5744813052237
 30
0.0
 10
286.2772212461931
 20
-92.59872918583609
 30
0.0
 10
291.7636846371104
 20
-89.52977057802
 30
0.0
 10
294.8098447566531
 20
-87.75388287768699
 30
0.0
 10
295.4717465284624
 20
-87.36799928350442
 30
0.0
  0
LINE
  5
F9
330
1F
100
AcDbEntity
  8
0
  6
Continuous
 62
     7
370
    25
100
AcDbLine
 10
257.3623827556
 20
-21.0876277508
 30
0.0
 11
257.3623827556
 21
-10.2486827962
 31
0.0
  0
LINE
  5
FA
330
1F
100
AcDbEntity
  8
0
  6
Continuous
 62
     7
370
    25
100
AcDbLine
 10
243.3623827556
 20
-10.2486827962
 30
0.0
 11
243.3623827556
 21
-21.3615800878
 31
0.0
  0
LINE
  5
FB
330
1F
100
AcDbEntity
  8
0
  6
Continuous
 62
     7
370
    25
100
AcDbLine
 10
266.0587229579
 20
4.4092302149
 30
0.0
 11
248.3810534282
 21
-5.7958711829
 31
0.0
  0
LINE
  5
FC
330
1F
100
AcDbEntity
  8
0
  6
Continuous
 62
     7
370
    25
100
AcDbLine
 10
295.4772257354
 20
-87.3776740192
 30
0.0
 11
313.1548952651
 21
-77.1725726214
 31
0.0
  0
SPLINE
  5
FD
330
1F
100
AcDbEntity
  8
0
  6
Continuous
 62
     7
370
    25
100
AcDbSpline
210
0.0
220
0.0
230
1.0
 70
     8
 71
     3
 72
    13
 73
     9
 74
     0
 42
0.00000001
 43
0.00000001
 40
0.0
 40
0.0
 40
0.0
 40
0.0
 40
0.0055758991211858
 40
0.238049423139098
 40
0.4705353446121968
 40
0.7030147594231207
 40
0.9354690222675732
 40
1.0
 40
1.0
 40
1.0
 40
1.0
 10
297.3922265449327
 20
21.31195227707862
 30
0.0
 10
297.3329599532407
 20
21.28263364496682
 30
0.0
 10
294.8027172682315
 20
20.03094610368206
 30
0.0
 10
289.8439107896251
 20
17.46380457499119
 30
0.0
 10
282.5209427092751
 20
13.60603827328422
 30
0.0
 10
275.2587275706876
 20
9.630285123534845
 30
0.0
 10
269.7722786094993
 20
6.561335091868695
 30
0.0
 10
266.7261329375427
 20
4.785455889265156
 30
0.0
 10
266.0642456392213
 20
4.399580749288202
 30
0.0
  0
SPLINE
  5
FE
330
1F
100
AcDbEntity
  8
0
  6
Continuous
 62
     7
370
    25
100
AcDbSpline
210
0.0
220
0.0
230
1.0
 70
     8
 71
     3
 72
    12
 73
     8
 74
     0
 42
0.00000001
 43
0.00000001
 40
0.0
 40
0.0
 40
0.0
 40
0.0
 40
0.167873643118365
 40
0.4002145969021382
 40
0.632469210007898
 40
0.8646191661570916
 40
1.0
 40
1.0
 40
1.0
 40
1.0
 10
313.1494160581261
 20
-77.16289788572067
 30
0.0
 10
314.8750201723876
 20
-76.16535315342693
 30
0.0
 10
318.988899767619
 20
-73.78718374272735
 30
0.0
 10
325.425130009402
 20
-69.91881784725754
 30
0.0
 10
332.4610207459285
 20
-65.57193194511537
 30
0.0
 10
338.473071837049
 20
-61.760559877807
 30
0.0
 10
342.1143324182158
 20
-59.36353981869946
 30
0.0
 10
343.4555993464323
 20
-58.48059182311214
 30
0.0
  0
LINE
  5
FF
330
1F
100
AcDbEntity
  8
0
  6
Continuous
 62
     7
370
    25
100
AcDbLine
 10
318.1735659377
 20
13.7438923905
 30
0.0
 11
318.1735659377
 21
24.8568660122
 31
0.0
  0
LINE
  5
100
330
1F
100
AcDbEntity
  8
0
  6
Continuous
 62
     7
370
    25
100
AcDbLine
 10
304.1735659377
 20
24.8568660122
 30
0.0
 11
304.1735659377
 21
14.0174566719
 31
0.0
  0
LWPOLYLINE
  5
101
330
1F
100
AcDbEntity
  8
0
  6
Continuous
 62
     7
370
    25
100
AcDbPolyline
 90
      122
 70
   128
 43
0.0
 10
209.2794787687
 20
-45.1172379998
 10
209.3234174824
 20
-43.188812174
 10
209.4551151725
 20
-41.3163156023
 10
209.6742168052
 20
-39.5047962044
 10
209.9801317214
 20
-37.7591375164
 10
210.3720352285
 20
-36.0840455253
 10
210.8488708239
 20
-34.4840359831
 10
211.4093530431
 20
-32.9634222326
 10
212.0519709253
 20
-31.5263035796
 10
212.7749920861
 20
-30.176554242
 10
213.5764673885
 20
-28.9178129053
 10
214.4542361966
 20
-27.7534729136
 10
215.4059322009
 20
-26.6866731218
 10
216.4289897973
 20
-25.7202894333
 10
217.5206510034
 20
-24.8569270479
 10
218.6779728935
 20
-24.0989134378
 10
219.8978355325
 20
-23.4482920737
 10
221.1769503863
 20
-22.9068169158
 10
222.5118691874
 20
-22.4759476855
 10
223.8989932309
 20
-22.1568459298
 10
225.3345830754
 20
-21.9503718909
 10
226.8147686246
 20
-21.8570821861
 10
228.3355595599
 20
-21.8772283081
 10
229.8928560979
 20
-22.0107559464
 10
231.4824600423
 20
-22.2573051341
 10
233.1000861021
 20
-22.6162112183
 10
234.7413734433
 20
-23.0865066515
 10
236.4018974454
 20
-23.6669236005
 10
238.0771816294
 20
-24.3558973637
 10
239.7627097251
 20
-25.1515705897
 10
241.453937847
 20
-26.0517982842
 10
243.146306743
 20
-27.0541535924
 10
244.8352540856
 20
-28.1559343417
 10
246.5162267716
 20
-29.3541703258
 10
248.1846931957
 20
-30.6456313126
 10
249.8361554675
 20
-32.0268357515
 10
251.4661615366
 20
-33.4940601594
 10
253.0703171948
 20
-35.0433491589
 10
254.6442979221
 20
-36.6705261406
 10
256.1838605448
 20
-38.3712045232
 10
257.6848546741
 20
-40.1407995783
 10
259.1432338954
 20
-41.9745407905
 10
260.555066676
 20
-43.8674847179
 10
261.9165469644
 20
-45.8145283181
 10
263.2240044504
 20
-47.8104227058
 10
264.4739144599
 20
-49.8497873028
 10
265.6629074563
 20
-51.9271243426
 10
266.7877781248
 20
-54.0368336917
 10
267.845494013
 20
-56.1732279468
 10
268.8332037058
 20
-58.3305477667
 10
269.7482445125
 20
-60.5029773985
 10
270.5881496449
 20
-62.6846603561
 10
271.3506548672
 20
-64.8697152078
 10
272.0337046002
 20
-67.0522514323
 10
272.6354574625
 20
-69.2263852975
 10
273.1542912348
 20
-71.3862557231
 10
273.588807233
 20
-73.5260400802
 10
273.9378340788
 20
-75.6399698884
 10
274.2004308575
 20
-77.7223463669
 10
274.3758896546
 20
-79.7675557967
 10
274.4637374643
 20
-81.7700846548
 10
274.4637374643
 20
-83.7245344775
 10
274.3758896546
 20
-85.6256364135
 10
274.2004308575
 20
-87.4682654282
 10
273.9378340788
 20
-89.2474541195
 10
273.588807233
 20
-90.9584061093
 10
273.1542912348
 20
-92.5965089734
 10
272.6354574625
 20
-94.1573466762
 10
272.0337046002
 20
-95.6367114752
 10
271.3506548672
 20
-97.0306152645
 10
270.5881496449
 20
-98.3353003258
 10
269.7482445125
 20
-99.5472494589
 10
268.8332037058
 20
-100.6631954631
 10
267.845494013
 20
-101.6801299455
 10
266.7877781248
 20
-102.5953114303
 10
265.6629074563
 20
-103.4062727502
 10
264.4739144599
 20
-104.1108276968
 10
263.2240044504
 20
-104.7070769144
 10
261.9165469644
 20
-105.1934130207
 10
260.555066676
 20
-105.5685249394
 10
259.1432338954
 20
-105.8314014352
 10
257.6848546741
 20
-105.9813338395
 10
256.1838605448
 20
-106.017917961
 10
254.6442979221
 20
-105.9410551754
 10
253.0703171948
 20
-105.7509526913
 10
251.4661615366
 20
-105.4481229912
 10
249.8361554675
 20
-105.0333824506
 10
248.1846931957
 20
-104.5078491365
 10
246.5162267716
 20
-103.8729397939
 10
244.8352540856
 20
-103.1303660262
 10
243.146306743
 20
-102.2821296809
 10
241.453937847
 20
-101.3305174532
 10
239.7627097251
 20
-100.2780947215
 10
238.0771816294
 20
-99.1276986314
 10
236.4018974454
 20
-97.8824304473
 10
234.7413734433
 20
-96.5456471922
 10
233.1000861021
 20
-95.1209525972
 10
231.4824600423
 20
-93.6121873873
 10
229.8928560979
 20
-92.0234189266
 10
228.3355595599
 20
-90.358930254
 10
226.8147686246
 20
-88.6232085368
 10
225.3345830754
 20
-86.8209329737
 10
223.8989932309
 20
-84.9569621811
 10
222.5118691874
 20
-83.0363210946
 10
221.1769503863
 20
-81.0641874231
 10
219.8978355325
 20
-79.0458776904
 10
218.6779728935
 20
-76.9868329025
 10
217.5206510034
 20
-74.8926038802
 10
216.4289897973
 20
-72.7688362947
 10
215.4059322009
 20
-70.621255448
 10
214.4542361966
 20
-68.4556508382
 10
213.5764673885
 20
-66.2778605526
 10
212.7749920861
 20
-64.0937555288
 10
212.0519709253
 20
-61.9092237277
 10
211.4093530431
 20
-59.7301542608
 10
210.8488708239
 20
-57.5624215143
 10
210.3720352285
 20
-55.4118693122
 10
209.9801317214
 20
-53.2842951633
 10
209.6742168052
 20
-51.1854346311
 10
209.4551151725
 20
-49.1209458726
 10
209.3234174824
 20
-47.0963943845
 10
209.2794787687
 20
-45.1172379998
  0
SPLINE
  5
102
330
1F
100
AcDbEntity
  8
0
  6
Continuous
 62
     7
370
    25
100
AcDbSpline
210
0.0
220
0.0
230
1.0
 70
     8
 71
     3
 72
    17
 73
    13
 74
     0
 42
0.00000001
 43
0.00000001
 40
0.0
 40
0.0
 40
0.0
 40
0.0
 40
0.1066813776430603
 40
0.2133617937170949
 40
0.3200608374921164
 40
0.4267569597762832
 40
0.5330590647742403
 40
0.6393617868247247
 40
0.7453458575685162
 40
0.8513328730341119
 40
0.9577735500636977
 40
1.0
 40
1.0
 40
1.0
 40
1.0
 10
250.4379727080246
 20
-25.40582937181906
 30
0.0
 10
250.0443833084519
 20
-25.38126676444367
 30
0.0
 10
249.2572080569114
 20
-25.33214177108713
 30
0.0
 10
248.1064098109701
 20
-25.11702980981108
 30
0.0
 10
247.0205471193288
 20
-24.80896936631714
 30
0.0
 10
246.0284163486253
 20
-24.4132499559403
 30
0.0
 10
245.1623974997945
 20
-23.94419573769081
 30
0.0
 10
244.4429102667414
 20
-23.41759825221014
 30
0.0
 10
243.8910562945915
 20
-22.84549413473976
 30
0.0
 10
243.5293934881393
 20
-22.24069616273566
 30
0.0
 10
243.3602021221248
 20
-21.74108123264205
 30
0.0
 10
243.3806804901687
 20
-21.44570920554165
 30
0.0
 10
243.38649703348
 20
-21.36181364389674
 30
0.0
  0
SPLINE
  5
103
330
1F
100
AcDbEntity
  8
0
  6
Continuous
 62
     7
370
    25
100
AcDbSpline
210
0.0
220
0.0
230
1.0
 70
     8
 71
     3
 72
    16
 73
    12
 74
     0
 42
0.00000001
 43
0.00000001
 40
0.0
 40
0.0
 40
0.0
 40
0.0
 40
0.0958338439133
 40
0.2041667069782475
 40
0.3130652736077643
 40
0.4219575658333912
 40
0.5299086744332754
 40
0.6378580536300499
 40
0.7448360273508943
 40
0.8518177535739292
 40
1.0
 40
1.0
 40
1.0
 40
1.0
 10
257.352179238394
 20
-21.08724229820289
 30
0.0
 10
257.3409648126324
 20
-21.31543709641941
 30
0.0
 10
257.3170733324946
 20
-21.80158873762439
 30
0.0
 10
257.0409986301602
 20
-22.52986178701527
 30
0.0
 10
256.5774776577771
 20
-23.24038571514253
 30
0.0
 10
255.934307455922
 20
-23.88057618068848
 30
0.0
 10
255.1312847691877
 20
-24.42413965785614
 30
0.0
 10
254.2000382078979
 20
-24.86012599909372
 30
0.0
 10
253.1615000226407
 20
-25.17124330927636
 30
0.0
 10
251.9079563045647
 20
-25.39631966834654
 30
0.0
 10
250.9780186071636
 20
-25.40233567544418
 30
0.0
 10
250.4379727080246
 20
-25.40582937181907
 30
0.0
  0
LWPOLYLINE
  5
104
330
1F
100
AcDbEntity
  8
0
  6
Continuous
 62
     7
370
    25
100
AcDbPolyline
 90
      111
 70
   128
 43
0.0
 10
215.1838203916
 20
-48.5257418666
 10
215.2273543588
 20
-46.791144256
 10
215.3578142615
 20
-45.1124677909
 10
215.5747745667
 20
-43.4951879649
 10
215.877527595
 20
-41.9445800088
 10
216.265085829
 20
-40.4657016833
 10
216.7361851341
 20
-39.0633767822
 10
217.2892888825
 20
-37.7421793979
 10
217.9225929645
 20
-36.5064190015
 10
218.6340316741
 20
-35.3601263867
 10
219.4212844459
 20
-34.3070405217
 10
220.281783425
 20
-33.3505963537
 10
221.2127218427
 20
-32.4939136047
 10
222.2110631713
 20
-31.739786596
 10
223.2735510289
 20
-31.0906751329
 10
224.396719801
 20
-30.5486964822
 10
225.5769059445
 20
-30.1156184655
 10
226.8102599374
 20
-29.7928536934
 10
228.0927588355
 20
-29.5814549575
 10
229.4202193938
 20
-29.4821117965
 10
230.788311712
 20
-29.4951482471
 10
232.1925733572
 20
-29.6205217871
 10
233.6284239199
 20
-29.8578234742
 10
235.091179954
 20
-30.2062792794
 10
236.5760702533
 20
-30.6647526125
 10
238.0782514144
 20
-31.2317480287
 10
239.5928236344
 20
-31.9054161069
 10
241.1148466936
 20
-32.6835594816
 10
242.6393560692
 20
-33.5636400111
 10
244.1613791284
 20
-34.5427870556
 10
245.6759513484
 20
-35.6178068408
 10
247.1781325095
 20
-36.7851928758
 10
248.6630228088
 20
-38.0411373898
 10
250.1257788429
 20
-39.3815437531
 10
251.5616294056
 20
-40.8020398385
 10
252.9658910508
 20
-42.2979922832
 10
254.333983369
 20
-43.8645216012
 10
255.6614439273
 20
-45.4965180994
 10
256.9439428254
 20
-47.1886585446
 10
258.1772968183
 20
-48.9354235262
 10
259.3574829618
 20
-50.73111546
 10
260.4806517339
 20
-52.5698771722
 10
261.5431395915
 20
-54.4457110041
 10
262.5414809201
 20
-56.3524983758
 10
263.4724193378
 20
-58.2840197433
 10
264.3329183169
 20
-60.2339748851
 10
265.1201710887
 20
-62.1960034531
 10
265.8316097983
 20
-64.1637057177
 10
266.4649138803
 20
-66.1306634433
 10
267.0180176287
 20
-68.0904608225
 10
267.4891169338
 20
-70.0367054036
 10
267.8766751677
 20
-71.9630489414
 10
268.179428196
 20
-73.8632081036
 10
268.3963885013
 20
-75.730984966
 10
268.526848404
 20
-77.5602872287
 10
268.5703823712
 20
-79.3451480879
 10
268.526848404
 20
-81.0797456986
 10
268.3963885013
 20
-82.7584221637
 10
268.179428196
 20
-84.3757019897
 10
267.8766751677
 20
-85.9263099458
 10
267.4891169338
 20
-87.4051882713
 10
267.0180176287
 20
-88.8075131724
 10
266.4649138803
 20
-90.1287105567
 10
265.8316097983
 20
-91.3644709531
 10
265.1201710887
 20
-92.5107635679
 10
264.3329183169
 20
-93.5638494329
 10
263.4724193378
 20
-94.5202936009
 10
262.5414809201
 20
-95.3769763498
 10
261.5431395915
 20
-96.1311033586
 10
260.4806517339
 20
-96.7802148217
 10
259.3574829618
 20
-97.3221934724
 10
258.1772968183
 20
-97.7552714891
 10
256.9439428254
 20
-98.0780362611
 10
255.6614439273
 20
-98.2894349971
 10
254.333983369
 20
-98.3887781581
 10
252.9658910508
 20
-98.3757417075
 10
251.5616294056
 20
-98.2503681675
 10
250.1257788429
 20
-98.0130664804
 10
248.6630228088
 20
-97.6646106752
 10
247.1781325095
 20
-97.2061373421
 10
245.6759513484
 20
-96.6391419258
 10
244.1613791284
 20
-95.9654738477
 10
242.6393560692
 20
-95.187330473
 10
241.1148466936
 20
-94.3072499435
 10
239.5928236344
 20
-93.328102899
 10
238.0782514144
 20
-92.2530831138
 10
236.5760702533
 20
-91.0856970788
 10
235.091179954
 20
-89.8297525647
 10
233.6284239199
 20
-88.4893462015
 10
232.1925733572
 20
-87.0688501161
 10
230.788311712
 20
-85.5728976714
 10
229.4202193938
 20
-84.0063683534
 10
228.0927588355
 20
-82.3743718552
 10
226.8102599374
 20
-80.68223141
 10
225.5769059445
 20
-78.9354664284
 10
224.396719801
 20
-77.1397744946
 10
223.2735510289
 20
-75.3010127824
 10
222.2110631713
 20
-73.4251789505
 10
221.2127218427
 20
-71.5183915787
 10
220.281783425
 20
-69.5868702113
 10
219.4212844459
 20
-67.6369150695
 10
218.6340316741
 20
-65.6748865015
 10
217.9225929645
 20
-63.7071842369
 10
217.2892888825
 20
-61.7402265113
 10
216.7361851341
 20
-59.7804291321
 10
216.265085829
 20
-57.834184551
 10
215.877527595
 20
-55.9078410132
 10
215.5747745667
 20
-54.007681851
 10
215.3578142615
 20
-52.1399049886
 10
215.2273543588
 20
-50.3106027259
 10
215.1838203916
 20
-48.5257418666
  0
LWPOLYLINE
  5
105
330
1F
100
AcDbEntity
  8
0
  6
Continuous
 62
     7
370
    25
100
AcDbPolyline
 90
       48
 70
   128
 43
0.0
 10
255.3121302239
 20
-7.3912544048
 10
255.9277028134
 20
-7.797607774
 10
256.4439621347
 20
-8.247700635
 10
256.8516955278
 20
-8.73350107
 10
257.1436269808
 20
-9.2463399589
 10
257.3145469699
 20
-9.7770656794
 10
257.3614054239
 20
-10.3162074186
 10
257.2833661526
 20
-10.8541441793
 10
257.0818217687
 20
-11.3812764672
 10
256.7603688363
 20
-11.8881975943
 10
256.3247436908
 20
-12.3658615409
 10
255.7827200731
 20
-12.8057443827
 10
255.1439704076
 20
-13.1999963999
 10
254.4198931971
 20
-13.5415821559
 10
253.6234096167
 20
-13.8244060449
 10
252.7687329348
 20
-14.0434210677
 10
251.8711148768
 20
-14.1947188962
 10
250.9465734584
 20
-14.275599617
 10
250.0116071431
 20
-14.2846199118
 10
249.0829004269
 20
-14.2216188131
 10
248.1770261032
 20
-14.0877205771
 10
247.3101495207
 20
-13.8853146209
 10
246.4977401126
 20
-13.6180128836
 10
245.754295344
 20
-13.2905853711
 10
245.0930820044
 20
-12.9088750351
 10
244.5258994616
 20
-12.4796935056
 10
244.0628691014
 20
-12.0106995371
 10
243.7122537117
 20
-11.5102623382
 10
243.4803100322
 20
-10.9873122224
 10
243.3711771036
 20
-10.451181247
 10
243.3868024054
 20
-9.9114366819
 10
243.5269071038
 20
-9.3777102818
 10
243.7889910272
 20
-8.8595264068
 10
244.1683772817
 20
-8.3661320605
 10
244.6582957106
 20
-7.9063318766
 10
245.250003708
 20
-7.4883310005
 10
245.9329422306
 20
-7.1195886675
 10
246.6949242243
 20
-6.8066850933
 10
247.5223521024
 20
-6.5552040497
 10
248.4004603947
 20
-6.3696332219
 10
249.3135792381
 20
-6.2532841255
 10
250.2454140051
 20
-6.2082330132
 10
251.1793360822
 20
-6.2352838229
 10
252.0986796078
 20
-6.3339538324
 10
252.987038875
 20
-6.5024822729
 10
253.8285610916
 20
-6.7378617506
 10
254.6082292736
 20
-7.035891913
 10
255.3121302239
 20
-7.3912544048
  0
LWPOLYLINE
  5
106
330
1F
100
AcDbEntity
  8
0
  6
Continuous
 62
     7
370
    25
100
AcDbPolyline
 90
       41
 70
   128
 43
0.0
 10
253.8979166616
 20
-8.2076625166
 10
254.4074677275
 20
-8.5520767787
 10
254.8174153766
 20
-8.9382671117
 10
255.1176653371
 20
-9.3567242278
 10
255.3008244586
 20
-9.7971443241
 10
255.3623827556
 20
-10.2486827962
 10
255.3008244586
 20
-10.7002212683
 10
255.1176653371
 20
-11.1406413646
 10
254.8174153766
 20
-11.5590984807
 10
254.4074677275
 20
-11.9452888137
 10
253.8979166616
 20
-12.2897030757
 10
253.3013090171
 20
-12.5838606448
 10
252.6323352543
 20
-12.8205183852
 10
251.9074677275
 20
-12.993848998
 10
251.1445550808
 20
-13.0995845082
 10
250.3623827556
 20
-13.1351213566
 10
249.5802104304
 20
-13.0995845082
 10
248.8172977838
 20
-12.993848998
 10
248.0924302569
 20
-12.8205183852
 10
247.4234564942
 20
-12.5838606448
 10
246.8268488497
 20
-12.2897030757
 10
246.3172977838
 20
-11.9452888137
 10
245.9073501347
 20
-11.5590984807
 10
245.6071001742
 20
-11.1406413646
 10
245.4239410527
 20
-10.7002212683
 10
245.3623827556
 20
-10.2486827962
 10
245.4239410527
 20
-9.7971443241
 10
245.6071001742
 20
-9.3567242278
 10
245.9073501347
 20
-8.9382671117
 10
246.3172977838
 20
-8.5520767787
 10
246.8268488497
 20
-8.2076625166
 10
247.4234564942
 20
-7.9135049476
 10
248.0924302569
 20
-7.6768472072
 10
248.8172977838
 20
-7.5035165944
 10
249.5802104304
 20
-7.3977810842
 10
250.3623827556
 20
-7.3622442358
 10
251.1445550808
 20
-7.3977810842
 10
251.9074677275
 20
-7.5035165944
 10
252.6323352543
 20
-7.6768472072
 10
253.3013090171
 20
-7.9135049476
 10
253.8979166616
 20
-8.2076625166
  0
ARC
  5
107
330
1F
100
AcDbEntity
  8
0
  6
Continuous
 62
     7
370
    25
100
AcDbCircle
 10
304.7869206226
 20
6.35868743
 30
0.0
 40
16.68306886414185
100
AcDbArc
 50
92.1069598635
 51
116.315396079
  0
LWPOLYLINE
  5
108
330
1F
100
AcDbEntity
  8
0
  6
Continuous
 62
     7
370
    25
100
AcDbPolyline
 90
       47
 70
   128
 43
0.0
 10
318.1735659377
 20
19.4278723946
 10
319.2356837775
 20
18.8506478661
 10
320.9280526735
 20
17.8482925579
 10
322.6170000162
 20
16.7465118086
 10
324.2979727021
 20
15.5482758244
 10
325.9664391263
 20
14.2568148376
 10
327.617901398
 20
12.8756103988
 10
329.2479074671
 20
11.4083859908
 10
330.8520631253
 20
9.8590969914
 10
332.4260438526
 20
8.2319200096
 10
333.9656064753
 20
6.5312416271
 10
335.4666006047
 20
4.761646572
 10
336.9249798259
 20
2.9279053597
 10
338.3368126065
 20
1.0349614324
 10
339.6982928949
 20
-0.9120821678
 10
341.0057503809
 20
-2.9079765556
 10
342.2556603904
 20
-4.9473411526
 10
343.4446533868
 20
-7.0246781923
 10
344.5695240554
 20
-9.1343875414
 10
345.6272399435
 20
-11.2707817965
 10
346.6149496363
 20
-13.4281016164
 10
347.5299904431
 20
-15.6005312483
 10
348.3698955754
 20
-17.7822142058
 10
349.1324007978
 20
-19.9672690576
 10
349.8154505307
 20
-22.149805282
 10
350.417203393
 20
-24.3239391472
 10
350.9360371653
 20
-26.4838095728
 10
351.3705531635
 20
-28.6235939299
 10
351.7195800093
 20
-30.7375237382
 10
351.982176788
 20
-32.8199002166
 10
352.1576355851
 20
-34.8651096464
 10
352.2454833948
 20
-36.8676385046
 10
352.2454833948
 20
-38.8220883272
 10
352.1576355851
 20
-40.7231902632
 10
351.982176788
 20
-42.5658192779
 10
351.7195800093
 20
-44.3450079693
 10
351.3705531635
 20
-46.055959959
 10
350.9360371653
 20
-47.6940628232
 10
350.417203393
 20
-49.254900526
 10
349.8154505307
 20
-50.734265325
 10
349.1324007978
 20
-52.1281691142
 10
348.3698955754
 20
-53.4328541755
 10
347.5299904431
 20
-54.6448033086
 10
346.6149496363
 20
-55.7607493129
 10
345.6272399435
 20
-56.7776837952
 10
344.5695240554
 20
-57.6928652801
 10
343.4613648691
 20
-58.4928655603
  0
SPLINE
  5
109
330
1F
100
AcDbEntity
  8
0
  6
Continuous
 62
     7
370
    25
100
AcDbSpline
210
0.0
220
0.0
230
1.0
 70
     8
 71
     3
 72
    17
 73
    13
 74
     0
 42
0.00000001
 43
0.00000001
 40
0.0
 40
0.0
 40
0.0
 40
0.0
 40
0.1056510376874158
 40
0.2112969675489032
 40
0.316998946935673
 40
0.4226943298797369
 40
0.5273547416677684
 40
0.6320159670523359
 40
0.7359497051713622
 40
0.8398900907742483
 40
0.94471009535146
 40
1.0
 40
1.0
 40
1.0
 40
1.0
 10
311.349726664339
 20
9.9644970247064
 30
0.0
 10
310.9569322700847
 20
10.00048000147795
 30
0.0
 10
310.1713624716916
 20
10.07244421538098
 30
0.0
 10
309.0178871915288
 20
10.31158591419686
 30
0.0
 10
307.925307668253
 20
10.63556074239452
 30
0.0
 10
306.9248313842405
 20
11.03758418872724
 30
0.0
 10
306.0491902085613
 20
11.50243330569669
 30
0.0
 10
305.3191838570459
 20
12.01340107765755
 30
0.0
 10
304.7545495836855
 20
12.55910395095613
 30
0.0
 10
304.3731693461491
 20
13.1276475517668
 30
0.0
 10
304.1825722437887
 20
13.61825215210266
 30
0.0
 10
304.194157590486
 20
13.9150410543015
 30
0.0
 10
304.1981582967341
 20
14.01752958972492
 30
0.0
  0
SPLINE
  5
10A
330
1F
100
AcDbEntity
  8
0
  6
Continuous
 62
     7
370
    25
100
AcDbSpline
210
0.0
220
0.0
230
1.0
 70
     8
 71
     3
 72
    16
 73
    12
 74
     0
 42
0.00000001
 43
0.00000001
 40
0.0
 40
0.0
 40
0.0
 40
0.0
 40
0.0875369620757736
 40
0.1966784747206038
 40
0.3056623213122167
 40
0.4146428781892797
 40
0.5227906645208317
 40
0.630941404428637
 40
0.7389790676358805
 40
0.8470225177350214
 40
0.9999999999999999
 40
0.9999999999999999
 40
0.9999999999999999
 40
0.9999999999999999
 10
318.1576161113935
 20
13.74436729742935
 30
0.0
 10
318.1513084727491
 20
13.54966983192168
 30
0.0
 10
318.1371364393788
 20
13.1122226137412
 30
0.0
 10
317.8811142113327
 20
12.4548205577562
 30
0.0
 10
317.4348425574742
 20
11.80227338304377
 30
0.0
 10
316.8101831561832
 20
11.22305321214873
 30
0.0
 10
316.0270309653901
 20
10.73966960798874
 30
0.0
 10
315.1138565532925
 20
10.35995512149512
 30
0.0
 10
314.0902934726846
 20
10.09986741164338
 30
0.0
 10
312.8374043295882
 20
9.925173457325776
 30
0.0
 10
311.8994417734066
 20
9.949966485170512
 30
0.0
 10
311.349726664339
 20
9.9644970247064
 30
0.0
  0
LWPOLYLINE
  5
10B
330
1F
100
AcDbEntity
  8
0
  6
Continuous
 62
     7
370
    25
100
AcDbPolyline
 90
       48
 70
   128
 43
0.0
 10
306.2238184694
 20
21.9994376208
 10
305.6082458799
 20
22.40579099
 10
305.0919865586
 20
22.855883851
 10
304.6842531655
 20
23.341684286
 10
304.3923217125
 20
23.8545231749
 10
304.2214017234
 20
24.3852488954
 10
304.1745432694
 20
24.9243906346
 10
304.2525825407
 20
25.4623273953
 10
304.4541269247
 20
25.9894596832
 10
304.775579857
 20
26.4963808103
 10
305.2112050025
 20
26.9740447569
 10
305.7532286202
 20
27.4139275987
 10
306.3919782857
 20
27.8081796159
 10
307.1160554962
 20
28.1497653719
 10
307.9125390766
 20
28.4325892609
 10
308.7672157586
 20
28.6516042837
 10
309.6648338165
 20
28.8029021122
 10
310.5893752349
 20
28.8837828331
 10
311.5243415502
 20
28.8928031278
 10
312.4530482664
 20
28.8298020291
 10
313.3589225901
 20
28.6959037931
 10
314.2257991726
 20
28.4934978369
 10
315.0382085807
 20
28.2261960996
 10
315.7816533493
 20
27.8987685871
 10
316.4428666889
 20
27.5170582511
 10
317.0100492317
 20
27.0878767216
 10
317.4730795919
 20
26.6188827531
 10
317.8236949817
 20
26.1184455542
 10
318.0556386611
 20
25.5954954384
 10
318.1647715898
 20
25.059364463
 10
318.1491462879
 20
24.5196198979
 10
318.0090415895
 20
23.9858934978
 10
317.7469576661
 20
23.4677096228
 10
317.3675714116
 20
22.9743152765
 10
316.8776529827
 20
22.5145150927
 10
316.2859449853
 20
22.0965142165
 10
315.6030064627
 20
21.7277718835
 10
314.841024469
 20
21.4148683093
 10
314.013596591
 20
21.1633872657
 10
313.1354882986
 20
20.9778164379
 10
312.2223694552
 20
20.8614673416
 10
311.2905346882
 20
20.8164162292
 10
310.3566126111
 20
20.8434670389
 10
309.4372690855
 20
20.9421370484
 10
308.5489098183
 20
21.1106654889
 10
307.7073876017
 20
21.3460449666
 10
306.9277194197
 20
21.644075129
 10
306.2238184694
 20
21.9994376208
  0
LWPOLYLINE
  5
10C
330
1F
100
AcDbEntity
  8
0
  6
Continuous
 62
     7
370
    25
100
AcDbPolyline
 90
       41
 70
   128
 43
0.0
 10
307.6380320317
 20
22.8158457326
 10
307.1284809658
 20
23.1602599947
 10
306.7185333167
 20
23.5464503277
 10
306.4182833562
 20
23.9649074438
 10
306.2351242347
 20
24.4053275401
 10
306.1735659377
 20
24.8568660122
 10
306.2351242347
 20
25.3084044843
 10
306.4182833562
 20
25.7488245806
 10
306.7185333167
 20
26.1672816967
 10
307.1284809658
 20
26.5534720297
 10
307.6380320317
 20
26.8978862917
 10
308.2346396762
 20
27.1920438608
 10
308.903613439
 20
27.4287016012
 10
309.6284809658
 20
27.602032214
 10
310.3913936125
 20
27.7077677242
 10
311.1735659377
 20
27.7433045726
 10
311.9557382629
 20
27.7077677242
 10
312.7186509096
 20
27.602032214
 10
313.4435184364
 20
27.4287016012
 10
314.1124921991
 20
27.1920438608
 10
314.7090998436
 20
26.8978862917
 10
315.2186509096
 20
26.5534720297
 10
315.6285985586
 20
26.1672816967
 10
315.9288485192
 20
25.7488245806
 10
316.1120076407
 20
25.3084044843
 10
316.1735659377
 20
24.8568660122
 10
316.1120076407
 20
24.4053275401
 10
315.9288485192
 20
23.9649074438
 10
315.6285985586
 20
23.5464503277
 10
315.2186509096
 20
23.1602599947
 10
314.7090998436
 20
22.8158457326
 10
314.1124921991
 20
22.5216881636
 10
313.4435184364
 20
22.2850304232
 10
312.7186509096
 20
22.1116998104
 10
311.9557382629
 20
22.0059643002
 10
311.1735659377
 20
21.9704274518
 10
310.3913936125
 20
22.0059643002
 10
309.6284809658
 20
22.1116998104
 10
308.903613439
 20
22.2850304232
 10
308.2346396762
 20
22.5216881636
 10
307.6380320317
 20
22.8158457326
  0
LWPOLYLINE
  5
10D
330
1F
100
AcDbEntity
  8
0
  6
Continuous
 62
     1
370
    25
100
AcDbPolyline
 90
       63
 70
   128
 43
0.0
 10
248.3811318623
 20
-5.7958259042
 10
249.1428883721
 20
-5.3836477346
 10
250.4128605874
 20
-4.8098320748
 10
251.7389663179
 20
-4.3450076828
 10
253.1177459051
 20
-3.9903872324
 10
254.5456022707
 20
-3.7468958878
 10
256.0188103002
 20
-3.6151688902
 10
257.5335265622
 20
-3.5955499002
 10
259.0857993349
 20
-3.6880901016
 10
260.6715789159
 20
-3.8925480675
 10
262.2867281872
 20
-4.2083903905
 10
263.927033409
 20
-4.6347930739
 10
265.5882152121
 20
-5.170643682
 10
267.2659397629
 20
-5.8145442415
 10
268.9558300695
 20
-6.5648148895
 10
270.6534774012
 20
-7.4194982556
 10
272.3544527899
 20
-8.3763645684
 10
274.054318585
 20
-9.4329174729
 10
275.7486400307
 20
-10.5864005432
 10
277.4329968358
 20
-11.8338044738
 10
279.1029947058
 20
-13.1718749303
 10
280.7542768069
 20
-14.5971210394
 10
282.3825351326
 20
-16.105824497
 10
283.9835217428
 20
-17.6940492679
 10
285.5530598463
 20
-19.357651855
 10
287.0870546975
 20
-21.0922921092
 10
288.5815042788
 20
-22.8934445521
 10
290.0325097419
 20
-24.7564101826
 10
291.4362855793
 20
-26.6763287361
 10
292.7891695001
 20
-28.6481913643
 10
294.0876319846
 20
-30.6668537027
 10
295.3282854925
 20
-32.7270492918
 10
296.5078933003
 20
-34.8234033166
 10
297.6233779461
 20
-36.9504466287
 10
298.6718292577
 20
-39.102630015
 10
299.6505119454
 20
-41.2743386748
 10
300.5568727377
 20
-43.4599068681
 10
301.388547043
 20
-45.6536326971
 10
302.1433651178
 20
-47.8497929816
 10
302.8193577279
 20
-50.0426581901
 10
303.414761286
 20
-52.2265073877
 10
303.928022452
 20
-54.3956431611
 10
304.3578021861
 20
-56.5444064829
 10
304.7029792422
 20
-58.6671914748
 10
304.9626530927
 20
-60.7584600332
 10
305.1361462781
 20
-62.8127562773
 10
305.2230061746
 20
-64.8247207825
 10
305.2230061746
 20
-66.7891045633
 10
305.1361462781
 20
-68.7007827667
 10
304.9626530927
 20
-70.5547680426
 10
304.7029792422
 20
-72.3462235549
 10
304.3578021861
 20
-74.0704756009
 10
303.928022452
 20
-75.7230258038
 10
303.414761286
 20
-77.2995628488
 10
302.8193577279
 20
-78.7959737309
 10
302.1433651178
 20
-80.2083544847
 10
301.388547043
 20
-81.5330203703
 10
300.5568727377
 20
-82.7665154856
 10
299.6505119454
 20
-83.9056217826
 10
298.6718292577
 20
-84.9473674632
 10
297.6233779461
 20
-85.8890347316
 10
296.5078933003
 20
-86.7281668857
 10
295.4772358843
 20
-87.3776681603
  0
LWPOLYLINE
  5
10E
330
1F
100
AcDbEntity
  8
0
  6
Continuous
 62
     1
370
    25
100
AcDbPolyline
 90
       63
 70
   128
 43
0.0
 10
266.0587229579
 20
4.4092302149
 10
266.8205579018
 20
4.8214536632
 10
268.090530117
 20
5.395269323
 10
269.4166358475
 20
5.860093715
 10
270.7954154348
 20
6.2147141654
 10
272.2232718003
 20
6.45820551
 10
273.6964798298
 20
6.5899325076
 10
275.2111960918
 20
6.6095514976
 10
276.7634688646
 20
6.5170112962
 10
278.3492484455
 20
6.3125533303
 10
279.9643977169
 20
5.9967110073
 10
281.6047029387
 20
5.5703083238
 10
283.2658847418
 20
5.0344577158
 10
284.9436092925
 20
4.3905571563
 10
286.6334995992
 20
3.6402865082
 10
288.3311469309
 20
2.7856031422
 10
290.0321223196
 20
1.8287368294
 10
291.7319881146
 20
0.7721839249
 10
293.4263095603
 20
-0.3812991455
 10
295.1106663655
 20
-1.6287030761
 10
296.7806642355
 20
-2.9667735325
 10
298.4319463365
 20
-4.3920196416
 10
300.0602046622
 20
-5.9007230992
 10
301.6611912725
 20
-7.4889478701
 10
303.230729376
 20
-9.1525504573
 10
304.7647242271
 20
-10.8871907114
 10
306.2591738084
 20
-12.6883431543
 10
307.7101792716
 20
-14.5513087848
 10
309.113955109
 20
-16.4712273383
 10
310.4668390298
 20
-18.4430899665
 10
311.7653015143
 20
-20.4617523049
 10
313.0059550222
 20
-22.521947894
 10
314.18556283
 20
-24.6183019188
 10
315.3010474758
 20
-26.7453452309
 10
316.3494987874
 20
-28.8975286172
 10
317.328181475
 20
-31.069237277
 10
318.2345422674
 20
-33.2548054703
 10
319.0662165726
 20
-35.4485312993
 10
319.8210346474
 20
-37.6446915838
 10
320.4970272576
 20
-39.8375567923
 10
321.0924308156
 20
-42.0214059899
 10
321.6056919816
 20
-44.1905417633
 10
322.0354717158
 20
-46.3393050851
 10
322.3806487719
 20
-48.462090077
 10
322.6403226224
 20
-50.5533586355
 10
322.8138158078
 20
-52.6076548795
 10
322.9006757043
 20
-54.6196193847
 10
322.9006757043
 20
-56.5840031655
 10
322.8138158078
 20
-58.495681369
 10
322.6403226224
 20
-60.3496666448
 10
322.3806487719
 20
-62.1411221571
 10
322.0354717158
 20
-63.8653742031
 10
321.6056919816
 20
-65.517924406
 10
321.0924308156
 20
-67.0944614511
 10
320.4970272576
 20
-68.5908723331
 10
319.8210346474
 20
-70.0032530869
 10
319.0662165726
 20
-71.3279189725
 10
318.2345422674
 20
-72.5614140878
 10
317.328181475
 20
-73.7005203848
 10
316.3494987874
 20
-74.7422660654
 10
315.3010474758
 20
-75.6839333339
 10
314.18556283
 20
-76.5230654879
 10
313.1548952651
 20
-77.1725726214
  0
ENDSEC
  0
SECTION
  2
OBJECTS
  0
DICTIONARY
  5
C
330
0
100
AcDbDictionary
281
     1
  3
ACAD_GROUP
350
D
  3
ACAD_LAYOUT
350
1A
  3
ACAD_MLINESTYLE
350
17
  3
ACAD_PLOTSETTINGS
350
19
  3
ACAD_PLOTSTYLENAME
350
E
  3
ACAD_SCALELIST
350
47
  3
DWGPROPS
350
10F
  0
DICTIONARY
  5
D
102
{ACAD_REACTORS
330
C
102
}
330
C
100
AcDbDictionary
281
     1
  0
DICTIONARY
  5
1A
102
{ACAD_REACTORS
330
C
102
}
330
C
100
AcDbDictionary
281
     1
  3
Layout1
350
1E
  3
Layout2
350
26
  3
Model
350
22
  0
DICTIONARY
  5
17
102
{ACAD_REACTORS
330
C
102
}
330
C
100
AcDbDictionary
281
     1
  3
Standard
350
18
  0
DICTIONARY
  5
19
102
{ACAD_REACTORS
330
C
102
}
330
C
100
AcDbDictionary
281
     1
  0
ACDBDICTIONARYWDFLT
  5
E
102
{ACAD_REACTORS
330
C
102
}
330
C
100
AcDbDictionary
281
     1
  3
Normal
350
F
100
AcDbDictionaryWithDefault
340
F
  0
DICTIONARY
  5
47
102
{ACAD_REACTORS
330
C
102
}
330
C
100
AcDbDictionary
281
     1
  3
A0
350
48
  3
A1
350
49
  3
A2
350
4A
  3
A3
350
4B
  3
A4
350
4C
  3
A5
350
4D
  3
A6
350
4E
  3
A7
350
4F
  3
A8
350
50
  3
A9
350
51
  3
B0
350
52
  3
B1
350
53
  3
B2
350
54
  3
B3
350
55
  3
B4
350
56
  3
B5
350
57
  3
B6
350
58
  3
B7
350
59
  3
B8
350
5A
  3
B9
350
5B
  3
C0
350
5C
  3
C1
350
5D
  3
C2
350
5E
  3
C3
350
5F
  3
C4
350
60
  3
C5
350
61
  3
C6
350
62
  3
C7
350
63
  3
C8
350
64
  3
C9
350
65
  3
D0
350
66
  3
D1
350
67
  3
D2
350
68
  0
XRECORD
  5
10F
102
{ACAD_REACTORS
330
C
102
}
330
C
100
AcDbXrecord
280
     1
  1
DWGPROPS COOKIE
  2

  3

  4

  6

  7

  8
b.kav
  9

300
=
301
=
302
=
303
=
304
=
305
=
306
=
307
=
308
=
309
=
 40
0.0
 41
2459935.585143854
 42
2459935.585144028
  1

 90
        0
  0
LAYOUT
  5
1E
102
{ACAD_REACTORS
330
1A
102
}
330
1A
100
AcDbPlotSettings
  1

  2
none_device
  4

  6

 40
0.0
 41
0.0
 42
0.0
 43
0.0
 44
0.0
 45
0.0
 46
0.0
 47
0.0
 48
0.0
 49
0.0
140
0.0
141
0.0
142
1.0
143
1.0
 70
   688
 72
     1
 73
     0
 74
     5
  7

 75
    16
147
1.0
148
0.0
149
0.0
100
AcDbLayout
  1
Layout1
 70
     1
 71
     1
 10
0.0
 20
0.0
 11
420.0
 21
297.0
 12
0.0
 22
0.0
 32
0.0
 14
1.0000000000E+20
 24
1.0000000000E+20
 34
1.0000000000E+20
 15
-1.0000000000E+20
 25
-1.0000000000E+20
 35
-1.0000000000E+20
146
0.0
 13
0.0
 23
0.0
 33
0.0
 16
1.0
 26
0.0
 36
0.0
 17
0.0
 27
1.0
 37
0.0
 76
     0
330
1B
  0
LAYOUT
  5
26
102
{ACAD_REACTORS
330
1A
102
}
330
1A
100
AcDbPlotSettings
  1

  2
none_device
  4

  6

 40
0.0
 41
0.0
 42
0.0
 43
0.0
 44
0.0
 45
0.0
 46
0.0
 47
0.0
 48
0.0
 49
0.0
140
0.0
141
0.0
142
1.0
143
1.0
 70
   688
 72
     1
 73
     0
 74
     5
  7

 75
    16
147
1.0
148
0.0
149
0.0
100
AcDbLayout
  1
Layout2
 70
     1
 71
     2
 10
0.0
 20
0.0
 11
0.0
 21
0.0
 12
0.0
 22
0.0
 32
0.0
 14
0.0
 24
0.0
 34
0.0
 15
0.0
 25
0.0
 35
0.0
146
0.0
 13
0.0
 23
0.0
 33
0.0
 16
1.0
 26
0.0
 36
0.0
 17
0.0
 27
1.0
 37
0.0
 76
     0
330
23
  0
LAYOUT
  5
22
102
{ACAD_REACTORS
330
1A
102
}
330
1A
100
AcDbPlotSettings
  1

  2
none_device
  4
Letter_(8.50_x_11.00_Inches)
  6

 40
6.35
 41
6.35
 42
6.35000508
 43
6.35000508
 44
215.9
 45
279.4
 46
0.0
 47
0.0
 48
0.0
 49
0.0
140
0.0
141
0.0
142
1.0
143
1.0
 70
  1712
 72
     1
 73
     0
 74
     0
  7

 75
     0
147
1.0
148
0.0
149
0.0
100
AcDbLayout
  1
Model
 70
     1
 71
     0
 10
0.0
 20
0.0
 11
279.4
 21
215.9
 12
0.0
 22
0.0
 32
0.0
 14
0.0
 24
0.0
 34
0.0
 15
279.4
 25
215.9
 35
0.0
146
0.0
 13
0.0
 23
0.0
 33
0.0
 16
1.0
 26
0.0
 36
0.0
 17
0.0
 27
1.0
 37
0.0
 76
     0
330
1F
331
29
  0
MLINESTYLE
  5
18
102
{ACAD_REACTORS
330
17
102
}
330
17
100
AcDbMlineStyle
  2
Standard
 70
     0
  3

 62
   256
 51
90.0
 52
90.0
 71
     2
 49
0.5
 62
   256
  6
BYLAYER
 49
-0.5
 62
   256
  6
BYLAYER
  0
ACDBPLACEHOLDER
  5
F
102
{ACAD_REACTORS
330
E
102
}
330
E
  0
SCALE
  5
48
102
{ACAD_REACTORS
330
47
102
}
330
47
100
AcDbScale
 70
     0
300
1:1
140
1.0
141
1.0
290
     1
  0
SCALE
  5
49
102
{ACAD_REACTORS
330
47
102
}
330
47
100
AcDbScale
 70
     0
300
1:2
140
1.0
141
2.0
290
     0
  0
SCALE
  5
4A
102
{ACAD_REACTORS
330
47
102
}
330
47
100
AcDbScale
 70
     0
300
1:4
140
1.0
141
4.0
290
     0
  0
SCALE
  5
4B
102
{ACAD_REACTORS
330
47
102
}
330
47
100
AcDbScale
 70
     0
300
1:5
140
1.0
141
5.0
290
     0
  0
SCALE
  5
4C
102
{ACAD_REACTORS
330
47
102
}
330
47
100
AcDbScale
 70
     0
300
1:8
140
1.0
141
8.0
290
     0
  0
SCALE
  5
4D
102
{ACAD_REACTORS
330
47
102
}
330
47
100
AcDbScale
 70
     0
300
1:10
140
1.0
141
10.0
290
     0
  0
SCALE
  5
4E
102
{ACAD_REACTORS
330
47
102
}
330
47
100
AcDbScale
 70
     0
300
1:16
140
1.0
141
16.0
290
     0
  0
SCALE
  5
4F
102
{ACAD_REACTORS
330
47
102
}
330
47
100
AcDbScale
 70
     0
300
1:20
140
1.0
141
20.0
290
     0
  0
SCALE
  5
50
102
{ACAD_REACTORS
330
47
102
}
330
47
100
AcDbScale
 70
     0
300
1:30
140
1.0
141
30.0
290
     0
  0
SCALE
  5
51
102
{ACAD_REACTORS
330
47
102
}
330
47
100
AcDbScale
 70
     0
300
1:40
140
1.0
141
40.0
290
     0
  0
SCALE
  5
52
102
{ACAD_REACTORS
330
47
102
}
330
47
100
AcDbScale
 70
     0
300
1:50
140
1.0
141
50.0
290
     0
  0
SCALE
  5
53
102
{ACAD_REACTORS
330
47
102
}
330
47
100
AcDbScale
 70
     0
300
1:100
140
1.0
141
100.0
290
     0
  0
SCALE
  5
54
102
{ACAD_REACTORS
330
47
102
}
330
47
100
AcDbScale
 70
     0
300
2:1
140
2.0
141
1.0
290
     0
  0
SCALE
  5
55
102
{ACAD_REACTORS
330
47
102
}
330
47
100
AcDbScale
 70
     0
300
4:1
140
4.0
141
1.0
290
     0
  0
SCALE
  5
56
102
{ACAD_REACTORS
330
47
102
}
330
47
100
AcDbScale
 70
     0
300
8:1
140
8.0
141
1.0
290
     0
  0
SCALE
  5
57
102
{ACAD_REACTORS
330
47
102
}
330
47
100
AcDbScale
 70
     0
300
10:1
140
10.0
141
1.0
290
     0
  0
SCALE
  5
58
102
{ACAD_REACTORS
330
47
102
}
330
47
100
AcDbScale
 70
     0
300
100:1
140
100.0
141
1.0
290
     0
  0
SCALE
  5
59
102
{ACAD_REACTORS
330
47
102
}
330
47
100
AcDbScale
 70
     0
300
1/128" = 1'-0"
140
0.0078125
141
12.0
290
     0
  0
SCALE
  5
5A
102
{ACAD_REACTORS
330
47
102
}
330
47
100
AcDbScale
 70
     0
300
1/64" = 1'-0"
140
0.015625
141
12.0
290
     0
  0
SCALE
  5
5B
102
{ACAD_REACTORS
330
47
102
}
330
47
100
AcDbScale
 70
     0
300
1/32" = 1'-0"
140
0.03125
141
12.0
290
     0
  0
SCALE
  5
5C
102
{ACAD_REACTORS
330
47
102
}
330
47
100
AcDbScale
 70
     0
300
1/16" = 1'-0"
140
0.0625
141
12.0
290
     0
  0
SCALE
  5
5D
102
{ACAD_REACTORS
330
47
102
}
330
47
100
AcDbScale
 70
     0
300
3/32" = 1'-0"
140
0.09375
141
12.0
290
     0
  0
SCALE
  5
5E
102
{ACAD_REACTORS
330
47
102
}
330
47
100
AcDbScale
 70
     0
300
1/8" = 1'-0"
140
0.125
141
12.0
290
     0
  0
SCALE
  5
5F
102
{ACAD_REACTORS
330
47
102
}
330
47
100
AcDbScale
 70
     0
300
3/16" = 1'-0"
140
0.1875
141
12.0
290
     0
  0
SCALE
  5
60
102
{ACAD_REACTORS
330
47
102
}
330
47
100
AcDbScale
 70
     0
300
1/4" = 1'-0"
140
0.25
141
12.0
290
     0
  0
SCALE
  5
61
102
{ACAD_REACTORS
330
47
102
}
330
47
100
AcDbScale
 70
     0
300
3/8" = 1'-0"
140
0.375
141
12.0
290
     0
  0
SCALE
  5
62
102
{ACAD_REACTORS
330
47
102
}
330
47
100
AcDbScale
 70
     0
300
1/2" = 1'-0"
140
0.5
141
12.0
290
     0
  0
SCALE
  5
63
102
{ACAD_REACTORS
330
47
102
}
330
47
100
AcDbScale
 70
     0
300
3/4" = 1'-0"
140
0.75
141
12.0
290
     0
  0
SCALE
  5
64
102
{ACAD_REACTORS
330
47
102
}
330
47
100
AcDbScale
 70
     0
300
1" = 1'-0"
140
1.0
141
12.0
290
     0
  0
SCALE
  5
65
102
{ACAD_REACTORS
330
47
102
}
330
47
100
AcDbScale
 70
     0
300
1-1/2" = 1'-0"
140
1.5
141
12.0
290
     0
  0
SCALE
  5
66
102
{ACAD_REACTORS
330
47
102
}
330
47
100
AcDbScale
 70
     0
300
3" = 1'-0"
140
3.0
141
12.0
290
     0
  0
SCALE
  5
67
102
{ACAD_REACTORS
330
47
102
}
330
47
100
AcDbScale
 70
     0
300
6" = 1'-0"
140
6.0
141
12.0
290
     0
  0
SCALE
  5
68
102
{ACAD_REACTORS
330
47
102
}
330
47
100
AcDbScale
 70
     0
300
1'-0" = 1'-0"
140
12.0
141
12.0
290
     0
  0
ENDSEC
  0
EOF
